  0
SECTION
  2
HEADER
  9
$ACADVER
  1
AC1015
  9
$ACADMAINTVER
 70
    13
  9
$DWGCODEPAGE
  3
ANSI_1252
  9
$INSBASE
 10
0.0
 20
0.0
 30
0.0
  9
$EXTMIN
 10
-832.3999999999999
 20
-30.8
 30
0.0
  9
$EXTMAX
 10
1310.8
 20
1625.399999999999
 30
0.0
  9
$LIMMIN
 10
0.0
 20
0.0
  9
$LIMMAX
 10
12.0
 20
9.0
  9
$ORTHOMODE
 70
     0
  9
$REGENMODE
 70
     1
  9
$FILLMODE
 70
     1
  9
$QTEXTMODE
 70
     0
  9
$MIRRTEXT
 70
     1
  9
$LTSCALE
 40
1.0
  9
$ATTMODE
 70
     1
  9
$TEXTSIZE
 40
0.2
  9
$TRACEWID
 40
0.05
  9
$TEXTSTYLE
  7
STANDARD
  9
$CLAYER
  8
0
  9
$CELTYPE
  6
BYLAYER
  9
$CECOLOR
 62
   256
  9
$CELTSCALE
 40
1.0
  9
$DISPSILH
 70
     0
  9
$DIMSCALE
 40
1.0
  9
$DIMASZ
 40
0.18
  9
$DIMEXO
 40
0.0625
  9
$DIMDLI
 40
0.38
  9
$DIMRND
 40
0.0
  9
$DIMDLE
 40
0.0
  9
$DIMEXE
 40
0.18
  9
$DIMTP
 40
0.0
  9
$DIMTM
 40
0.0
  9
$DIMTXT
 40
0.18
  9
$DIMCEN
 40
0.09
  9
$DIMTSZ
 40
0.0
  9
$DIMTOL
 70
     0
  9
$DIMLIM
 70
     0
  9
$DIMTIH
 70
     1
  9
$DIMTOH
 70
     1
  9
$DIMSE1
 70
     0
  9
$DIMSE2
 70
     0
  9
$DIMTAD
 70
     0
  9
$DIMZIN
 70
     0
  9
$DIMBLK
  1

  9
$DIMASO
 70
     1
  9
$DIMSHO
 70
     1
  9
$DIMPOST
  1

  9
$DIMAPOST
  1

  9
$DIMALT
 70
     0
  9
$DIMALTD
 70
     2
  9
$DIMALTF
 40
25.4
  9
$DIMLFAC
 40
1.0
  9
$DIMTOFL
 70
     0
  9
$DIMTVP
 40
0.0
  9
$DIMTIX
 70
     0
  9
$DIMSOXD
 70
     0
  9
$DIMSAH
 70
     0
  9
$DIMBLK1
  1

  9
$DIMBLK2
  1

  9
$DIMSTYLE
  2
STANDARD
  9
$DIMCLRD
 70
     0
  9
$DIMCLRE
 70
     0
  9
$DIMCLRT
 70
     0
  9
$DIMTFAC
 40
1.0
  9
$DIMGAP
 40
0.09
  9
$DIMJUST
 70
     0
  9
$DIMSD1
 70
     0
  9
$DIMSD2
 70
     0
  9
$DIMTOLJ
 70
     1
  9
$DIMTZIN
 70
     0
  9
$DIMALTZ
 70
     0
  9
$DIMALTTZ
 70
     0
  9
$DIMUPT
 70
     0
  9
$DIMDEC
 70
     4
  9
$DIMTDEC
 70
     4
  9
$DIMALTU
 70
     2
  9
$DIMALTTD
 70
     2
  9
$DIMTXSTY
  7
STANDARD
  9
$DIMAUNIT
 70
     0
  9
$DIMADEC
 70
     0
  9
$DIMALTRND
 40
0.0
  9
$DIMAZIN
 70
     0
  9
$DIMDSEP
 70
    46
  9
$DIMATFIT
 70
     3
  9
$DIMFRAC
 70
     0
  9
$DIMLDRBLK
  1

  9
$DIMLUNIT
 70
     2
  9
$DIMLWD
 70
    -2
  9
$DIMLWE
 70
    -2
  9
$DIMTMOVE
 70
     0
  9
$LUNITS
 70
     2
  9
$LUPREC
 70
     4
  9
$SKETCHINC
 40
0.1
  9
$FILLETRAD
 40
0.5
  9
$AUNITS
 70
     0
  9
$AUPREC
 70
     0
  9
$MENU
  1
.
  9
$ELEVATION
 40
0.0
  9
$PELEVATION
 40
0.0
  9
$THICKNESS
 40
0.0
  9
$LIMCHECK
 70
     0
  9
$CHAMFERA
 40
0.5
  9
$CHAMFERB
 40
0.5
  9
$CHAMFERC
 40
1.0
  9
$CHAMFERD
 40
0.0
  9
$SKPOLY
 70
     1
  9
$TDCREATE
 40
2451008.519973958
  9
$TDUCREATE
 40
2451008.686640625
  9
$TDUPDATE
 40
2453843.724714432
  9
$TDUUPDATE
 40
2453843.891381099
  9
$TDINDWG
 40
0.0030650694
  9
$TDUSRTIMER
 40
0.0030650694
  9
$USRTIMER
 70
     1
  9
$ANGBASE
 50
0.0
  9
$ANGDIR
 70
     0
  9
$PDMODE
 70
    33
  9
$PDSIZE
 40
0.0
  9
$PLINEWID
 40
0.0
  9
$SPLFRAME
 70
     0
  9
$SPLINETYPE
 70
     6
  9
$SPLINESEGS
 70
     8
  9
$HANDSEED
  5
3D8
  9
$SURFTAB1
 70
     6
  9
$SURFTAB2
 70
     6
  9
$SURFTYPE
 70
     6
  9
$SURFU
 70
     6
  9
$SURFV
 70
     6
  9
$UCSBASE
  2

  9
$UCSNAME
  2

  9
$UCSORG
 10
0.0
 20
0.0
 30
0.0
  9
$UCSXDIR
 10
1.0
 20
0.0
 30
0.0
  9
$UCSYDIR
 10
0.0
 20
1.0
 30
0.0
  9
$UCSORTHOREF
  2

  9
$UCSORTHOVIEW
 70
     0
  9
$UCSORGTOP
 10
0.0
 20
0.0
 30
0.0
  9
$UCSORGBOTTOM
 10
0.0
 20
0.0
 30
0.0
  9
$UCSORGLEFT
 10
0.0
 20
0.0
 30
0.0
  9
$UCSORGRIGHT
 10
0.0
 20
0.0
 30
0.0
  9
$UCSORGFRONT
 10
0.0
 20
0.0
 30
0.0
  9
$UCSORGBACK
 10
0.0
 20
0.0
 30
0.0
  9
$PUCSBASE
  2

  9
$PUCSNAME
  2

  9
$PUCSORG
 10
0.0
 20
0.0
 30
0.0
  9
$PUCSXDIR
 10
1.0
 20
0.0
 30
0.0
  9
$PUCSYDIR
 10
0.0
 20
1.0
 30
0.0
  9
$PUCSORTHOREF
  2

  9
$PUCSORTHOVIEW
 70
     0
  9
$PUCSORGTOP
 10
0.0
 20
0.0
 30
0.0
  9
$PUCSORGBOTTOM
 10
0.0
 20
0.0
 30
0.0
  9
$PUCSORGLEFT
 10
0.0
 20
0.0
 30
0.0
  9
$PUCSORGRIGHT
 10
0.0
 20
0.0
 30
0.0
  9
$PUCSORGFRONT
 10
0.0
 20
0.0
 30
0.0
  9
$PUCSORGBACK
 10
0.0
 20
0.0
 30
0.0
  9
$USERI1
 70
     0
  9
$USERI2
 70
     0
  9
$USERI3
 70
     0
  9
$USERI4
 70
     0
  9
$USERI5
 70
     0
  9
$USERR1
 40
0.0
  9
$USERR2
 40
0.0
  9
$USERR3
 40
0.0
  9
$USERR4
 40
0.0
  9
$USERR5
 40
0.0
  9
$WORLDVIEW
 70
     1
  9
$SHADEDGE
 70
     3
  9
$SHADEDIF
 70
    70
  9
$TILEMODE
 70
     1
  9
$MAXACTVP
 70
    48
  9
$PINSBASE
 10
0.0
 20
0.0
 30
0.0
  9
$PLIMCHECK
 70
     0
  9
$PEXTMIN
 10
1.000000000000000E+20
 20
1.000000000000000E+20
 30
1.000000000000000E+20
  9
$PEXTMAX
 10
-1.000000000000000E+20
 20
-1.000000000000000E+20
 30
-1.000000000000000E+20
  9
$PLIMMIN
 10
0.0
 20
0.0
  9
$PLIMMAX
 10
12.0
 20
9.0
  9
$UNITMODE
 70
     0
  9
$VISRETAIN
 70
     1
  9
$PLINEGEN
 70
     0
  9
$PSLTSCALE
 70
     1
  9
$TREEDEPTH
 70
  3020
  9
$CMLSTYLE
  2
STANDARD
  9
$CMLJUST
 70
     0
  9
$CMLSCALE
 40
1.0
  9
$PROXYGRAPHICS
 70
     1
  9
$MEASUREMENT
 70
     0
  9
$CELWEIGHT
370
    -1
  9
$ENDCAPS
280
     0
  9
$JOINSTYLE
280
     0
  9
$LWDISPLAY
290
     0
  9
$INSUNITS
 70
     0
  9
$HYPERLINKBASE
  1

  9
$STYLESHEET
  1

  9
$XEDIT
290
     1
  9
$CEPSNTYPE
380
     0
  9
$PSTYLEMODE
290
     1
  9
$FINGERPRINTGUID
  2
{1E36195D-CD88-4F72-AFEB-2E6E6F3B854D}
  9
$VERSIONGUID
  2
{D04ACE5F-A176-4A5C-9F78-35B83A5118B0}
  9
$EXTNAMES
290
     1
  9
$PSVPSCALE
 40
0.0
  9
$OLESTARTUP
290
     0
  0
ENDSEC
  0
SECTION
  2
CLASSES
  0
CLASS
  1
ACDBDICTIONARYWDFLT
  2
AcDbDictionaryWithDefault
  3
AutoCAD 2000
 90
        0
280
     0
281
     0
  0
CLASS
  1
ACDBPLACEHOLDER
  2
AcDbPlaceHolder
  3
AutoCAD 2000
 90
        0
280
     0
281
     0
  0
CLASS
  1
LAYOUT
  2
AcDbLayout
  3
AutoCAD 2000
 90
        0
280
     0
281
     0
  0
CLASS
  1
DICTIONARYVAR
  2
AcDbDictionaryVar
  3
AutoCAD 2000
 90
        0
280
     0
281
     0
  0
ENDSEC
  0
SECTION
  2
TABLES
  0
TABLE
  2
VPORT
  5
8
330
0
100
AcDbSymbolTable
 70
     2
  0
VPORT
  5
3D7
330
8
100
AcDbSymbolTableRecord
100
AcDbViewportTableRecord
  2
*Active
 70
     0
 10
0.0
 20
0.0
 11
1.0
 21
1.0
 12
282.6012449486138
 22
817.3313448329514
 13
0.0
 23
0.0
 14
0.5
 24
0.5
 15
0.5
 25
0.5
 16
0.0
 26
0.0
 36
1.0
 17
0.0
 27
0.0
 37
0.0
 40
1675.955864030711
 41
1.864541832669322
 42
50.0
 43
0.0
 44
0.0
 50
0.0
 51
0.0
 71
     0
 72
   100
 73
     1
 74
     1
 75
     0
 76
     0
 77
     0
 78
     0
281
     0
 65
     1
110
0.0
120
0.0
130
0.0
111
1.0
121
0.0
131
0.0
112
0.0
122
1.0
132
0.0
 79
     0
146
0.0
  0
ENDTAB
  0
TABLE
  2
LTYPE
  5
5
330
0
100
AcDbSymbolTable
 70
     4
  0
LTYPE
  5
13
330
5
100
AcDbSymbolTableRecord
100
AcDbLinetypeTableRecord
  2
BYBLOCK
 70
     0
  3

 72
    65
 73
     0
 40
0.0
  0
LTYPE
  5
14
330
5
100
AcDbSymbolTableRecord
100
AcDbLinetypeTableRecord
  2
BYLAYER
 70
     0
  3

 72
    65
 73
     0
 40
0.0
  0
LTYPE
  5
15
330
5
100
AcDbSymbolTableRecord
100
AcDbLinetypeTableRecord
  2
CONTINUOUS
 70
     0
  3
Solid line
 72
    65
 73
     0
 40
0.0
  0
LTYPE
  5
4C
330
5
100
AcDbSymbolTableRecord
100
AcDbLinetypeTableRecord
  2
CENTER
 70
     0
  3
Center ____ _ ____ _ ____ _ ____ _ ____ _ ____
 72
    65
 73
     4
 40
2.0
 49
1.25
 74
     0
 49
-0.25
 74
     0
 49
0.25
 74
     0
 49
-0.25
 74
     0
  0
LTYPE
  5
4D
330
5
100
AcDbSymbolTableRecord
100
AcDbLinetypeTableRecord
  2
DASHED
 70
     0
  3
Dashed __ __ __ __ __ __ __ __ __ __ __ __ __ _
 72
    65
 73
     2
 40
0.75
 49
0.5
 74
     0
 49
-0.25
 74
     0
  0
LTYPE
  5
4E
330
5
100
AcDbSymbolTableRecord
100
AcDbLinetypeTableRecord
  2
HIDDEN
 70
     0
  3
Hidden __ __ __ __ __ __ __ __ __ __ __ __ __ _
 72
    65
 73
     2
 40
0.375
 49
0.25
 74
     0
 49
-0.125
 74
     0
  0
ENDTAB
  0
TABLE
  2
LAYER
  5
2
330
0
100
AcDbSymbolTable
 70
    10
  0
LAYER
  5
F
330
2
100
AcDbSymbolTableRecord
100
AcDbLayerTableRecord
  2
0
 70
     0
 62
     7
  6
CONTINUOUS
370
    -3
390
3CF
  0
LAYER
  5
4F
330
2
100
AcDbSymbolTableRecord
100
AcDbLayerTableRecord
  2
GRID
 70
     0
 62
     1
  6
CONTINUOUS
370
    -3
390
3CF
  0
LAYER
  5
50
330
2
100
AcDbSymbolTableRecord
100
AcDbLayerTableRecord
  2
COLUMNS
 70
     0
 62
     5
  6
CONTINUOUS
370
    -3
390
3CF
  0
LAYER
  5
51
330
2
100
AcDbSymbolTableRecord
100
AcDbLayerTableRecord
  2
BEAMS
 70
     0
 62
     5
  6
CONTINUOUS
370
    -3
390
3CF
  0
LAYER
  5
52
330
2
100
AcDbSymbolTableRecord
100
AcDbLayerTableRecord
  2
BRACES
 70
     0
 62
     5
  6
CONTINUOUS
370
    -3
390
3CF
  0
LAYER
  5
53
330
2
100
AcDbSymbolTableRecord
100
AcDbLayerTableRecord
  2
WALLS
 70
     0
 62
     6
  6
CONTINUOUS
370
    -3
390
3CF
  0
LAYER
  5
54
330
2
100
AcDbSymbolTableRecord
100
AcDbLayerTableRecord
  2
FLOORS
 70
     0
 62
     6
  6
CONTINUOUS
370
    -3
390
3CF
  0
LAYER
  5
55
330
2
100
AcDbSymbolTableRecord
100
AcDbLayerTableRecord
  2
TEXT
 70
     0
 62
     5
  6
CONTINUOUS
370
    -3
390
3CF
  0
LAYER
  5
56
330
2
100
AcDbSymbolTableRecord
100
AcDbLayerTableRecord
  2
DIMLINES
 70
     0
 62
     4
  6
CONTINUOUS
370
    -3
390
3CF
  0
LAYER
  5
57
330
2
100
AcDbSymbolTableRecord
100
AcDbLayerTableRecord
  2
CENTLINES
 70
     0
 62
     7
  6
CONTINUOUS
370
    -3
390
3CF
  0
ENDTAB
  0
TABLE
  2
STYLE
  5
3
330
0
100
AcDbSymbolTable
 70
     1
  0
STYLE
  5
10
330
3
100
AcDbSymbolTableRecord
100
AcDbTextStyleTableRecord
  2
STANDARD
 70
     0
 40
0.0
 41
1.0
 50
0.0
 71
     0
 42
0.2
  3
txt
  4

  0
ENDTAB
  0
TABLE
  2
VIEW
  5
6
330
0
100
AcDbSymbolTable
 70
     0
  0
ENDTAB
  0
TABLE
  2
UCS
  5
7
330
0
100
AcDbSymbolTable
 70
     0
  0
ENDTAB
  0
TABLE
  2
APPID
  5
9
330
0
100
AcDbSymbolTable
 70
     1
  0
APPID
  5
11
330
9
100
AcDbSymbolTableRecord
100
AcDbRegAppTableRecord
  2
ACAD
 70
     0
  0
ENDTAB
  0
TABLE
  2
DIMSTYLE
  5
A
330
0
100
AcDbSymbolTable
 70
     1
100
AcDbDimStyleTable
 71
     0
  0
DIMSTYLE
105
1D
330
A
100
AcDbSymbolTableRecord
100
AcDbDimStyleTableRecord
  2
STANDARD
 70
     0
340
10
  0
ENDTAB
  0
TABLE
  2
BLOCK_RECORD
  5
1
330
0
100
AcDbSymbolTable
 70
    11
  0
BLOCK_RECORD
  5
19
330
1
100
AcDbSymbolTableRecord
100
AcDbBlockTableRecord
  2
*MODEL_SPACE
340
3D2
  0
BLOCK_RECORD
  5
16
330
1
100
AcDbSymbolTableRecord
100
AcDbBlockTableRecord
  2
*PAPER_SPACE
340
3D3
  0
BLOCK_RECORD
  5
61
330
1
100
AcDbSymbolTableRecord
100
AcDbBlockTableRecord
  2
BOX
340
0
  0
BLOCK_RECORD
  5
66
330
1
100
AcDbSymbolTableRecord
100
AcDbBlockTableRecord
  2
SPHERE
340
0
  0
BLOCK_RECORD
  5
A2
330
1
100
AcDbSymbolTableRecord
100
AcDbBlockTableRecord
  2
UX
340
0
  0
BLOCK_RECORD
  5
B7
330
1
100
AcDbSymbolTableRecord
100
AcDbBlockTableRecord
  2
UY
340
0
  0
BLOCK_RECORD
  5
CC
330
1
100
AcDbSymbolTableRecord
100
AcDbBlockTableRecord
  2
UZ
340
0
  0
BLOCK_RECORD
  5
1B8
330
1
100
AcDbSymbolTableRecord
100
AcDbBlockTableRecord
  2
RX
340
0
  0
BLOCK_RECORD
  5
1FF
330
1
100
AcDbSymbolTableRecord
100
AcDbBlockTableRecord
  2
RY
340
0
  0
BLOCK_RECORD
  5
246
330
1
100
AcDbSymbolTableRecord
100
AcDbBlockTableRecord
  2
RZ
340
0
  0
BLOCK_RECORD
  5
2F9
330
1
100
AcDbSymbolTableRecord
100
AcDbBlockTableRecord
  2
XAXIS
340
0
  0
BLOCK_RECORD
  5
31F
330
1
100
AcDbSymbolTableRecord
100
AcDbBlockTableRecord
  2
YAXIS
340
0
  0
BLOCK_RECORD
  5
345
330
1
100
AcDbSymbolTableRecord
100
AcDbBlockTableRecord
  2
ZAXIS
340
0
  0
ENDTAB
  0
ENDSEC
  0
SECTION
  2
BLOCKS
  0
BLOCK
  5
1A
330
19
100
AcDbEntity
  8
0
100
AcDbBlockBegin
  2
*MODEL_SPACE
 70
     0
 10
0.0
 20
0.0
 30
0.0
  3
*MODEL_SPACE
  1

  0
ENDBLK
  5
1B
330
19
100
AcDbEntity
  8
0
100
AcDbBlockEnd
  0
BLOCK
  5
17
330
16
100
AcDbEntity
 67
     1
  8
0
100
AcDbBlockBegin
  2
*PAPER_SPACE
 70
     0
 10
0.0
 20
0.0
 30
0.0
  3
*PAPER_SPACE
  1

  0
ENDBLK
  5
18
330
16
100
AcDbEntity
 67
     1
  8
0
100
AcDbBlockEnd
  0
BLOCK
  5
62
330
61
100
AcDbEntity
  8
0
100
AcDbBlockBegin
  2
BOX
 70
     0
 10
0.0
 20
0.0
 30
0.0
  3
BOX
  1

  0
3DSOLID
  5
63
330
61
100
AcDbEntity
  8
0
100
AcDbModelerGeometry
 70
     1
  1
koo gj n o          
  1
h J1410(1 nl ^ \VL kqoqm QK mk R01 ^ /- nh nhemlelj mooi 
  1
rn fqfffffffffffffffj:rooh n:rono 
  1
=0;& {rn {n {rn {rn |
  1
3*2/ {rn {rn {m {o |
  1
,7:33 {rn {rn {rn {l {rn {n |
  1
9><: {rn {k {j {m {rn {i 90-(>-; ,6183: |
  1
9><: {rn {h {g {m {rn {f -:):-,:; ,6183: |
  1
300/ {rn {rn {no {l |
  1
/3>1:r,*-9><: {rn o o oqj o o n n o o 90-(>-;@) V V V V |
  1
9><: {rn {nn {nm {m {rn {nl -:):-,:; ,6183: |
  1
300/ {rn {rn {nk {k |
  1
/3>1:r,*-9><: {rn o o roqj o o n n o o 90-(>-;@) V V V V |
  1
<0:;8: {rn {nj {ni {nh {ng 90-(>-; {j {rn |
  1
9><: {rn {nf {mo {m {rn {mn -:):-,:; ,6183: |
  1
300/ {rn {rn {mm {h |
  1
/3>1:r,*-9><: {rn o roqj o o n o o o n 90-(>-;@) V V V V |
  1
<0:;8: {rn {ml {mk {mj {mi 90-(>-; {g {rn |
  1
<0:;8: {rn {mh {no {mg {mf 90-(>-; {j {rn |
  1
<0:;8: {rn {no {mh {lo {ln 90-(>-; {j {rn |
  1
<0:;8: {rn {lm {ll {no {ng -:):-,:; {lk {rn |
  1
:;8: {rn {lj {li {nh {lh 90-(>-; |
  1
9><: {rn {lg {lf {m {rn {ko -:):-,:; ,6183: |
  1
300/ {rn {rn {kn {nn |
  1
/3>1:r,*-9><: {rn roqj o o n o o o o rn 90-(>-;@) V V V V |
  1
<0:;8: {rn {km {lo {kl {kk 90-(>-; {nm {rn |
  1
<0:;8: {rn {kj {nk {km {ki 90-(>-; {g {rn |
  1
<0:;8: {rn {nk {kj {kh {kg 90-(>-; {g {rn |
  1
<0:;8: {rn {ll {lm {nk {mi -:):-,:; {lk {rn |
  1
:;8: {rn {kf {jo {mj {jn 90-(>-; |
  1
<0:;8: {rn {ni {nj {jm {jl 90-(>-; {j {rn |
  1
<0:;8: {rn {jk {jj {nj {mf -:):-,:; {lf {rn |
  1
:;8: {rn {li {ji {mg {jh 90-(>-; |
  1
<0:;8: {rn {mm {jg {ni {ln -:):-,:; {nm {rn |
  1
:;8: {rn {jf {lj {lo {io 90-(>-; |
  1
<0:;8: {rn {mj {nh {jg {in 90-(>-; {lk {rn |
  1
<0:;8: {rn {nh {mj {jk {im -:):-,:; {lk {rn |
  1
300/ {rn {rn {lm {lg |
  1
):-+:' {rn {ng {il |
  1
):-+:' {rn {ng {ik |
  1
,+->687+r<*-): {rn oqj o oqj o n o V V |
  1
9><: {rn {rn {lk {m {rn {ij -:):-,:; ,6183: |
  1
300/ {rn {rn {jk {nf |
  1
/3>1:r,*-9><: {rn o oqj o o rn o o o rn 90-(>-;@) V V V V |
  1
<0:;8: {rn {ii {jm {jj {ih 90-(>-; {mo {rn |
  1
<0:;8: {rn {jg {mm {ml {ki -:):-,:; {nm {rn |
  1
<0:;8: {rn {jm {ii {mm {kk -:):-,:; {mo {rn |
  1
:;8: {rn {jf {ig {kl {if 90-(>-; |
  1
<0:;8: {rn {mk {ml {ii {ho 90-(>-; {g {rn |
  1
:;8: {rn {jo {ig {km {hn 90-(>-; |
  1
<0:;8: {rn {jj {jk {mk {kg -:):-,:; {lf {rn |
  1
:;8: {rn {hm {kf {kh {hl 90-(>-; |
  1
):-+:' {rn {mi {hk |
  1
):-+:' {rn {in {hj |
  1
,+->687+r<*-): {rn oqj o roqj o rn o V V |
  1
<0:;8: {rn {kn {kl {mh {jl -:):-,:; {mo {rn |
  1
:;8: {rn {ji {jf {jm {hi 90-(>-; |
  1
<0:;8: {rn {kh {mg {ll {im 90-(>-; {lf {rn |
  1
<0:;8: {rn {mg {kh {kn {ih -:):-,:; {lf {rn |
  1
):-+:' {rn {mf {hh |
  1
,+->687+r<*-): {rn o oqj oqj rn o o V V |
  1
<0:;8: {rn {lo {km {lm {in -:):-,:; {nm {rn |
  1
):-+:' {rn {jl {hg |
  1
,+->687+r<*-): {rn o roqj oqj n o o V V |
  1
:;8: {rn {lj {jo {lm {hf 90-(>-; |
  1
:;8: {rn {li {kf {ll {go 90-(>-; |
  1
/061+ {rn oqj roqj oqj |
  1
/061+ {rn oqj oqj oqj |
  1
/3>1:r,*-9><: {rn oqj o o rn o o o o n 90-(>-;@) V V V V |
  1
<0:;8: {rn {kl {kn {kj {ho -:):-,:; {mo {rn |
  1
:;8: {rn {ji {hm {jj {gn 90-(>-; |
  1
):-+:' {rn {ho {gm |
  1
,+->687+r<*-): {rn roqj roqj o o o rn V V |
  1
:;8: {rn {ig {hm {ii {gl 90-(>-; |
  1
,+->687+r<*-): {rn o roqj roqj rn o o V V |
  1
):-+:' {rn {kg {gk |
  1
,+->687+r<*-): {rn o oqj roqj n o o V V |
  1
/061+ {rn oqj oqj roqj |
  1
/061+ {rn oqj roqj roqj |
  1
,+->687+r<*-): {rn roqj o oqj o rn o V V |
  1
/061+ {rn roqj oqj oqj |
  1
/061+ {rn roqj roqj oqj |
  1
,+->687+r<*-): {rn oqj roqj o o o rn V V |
  1
,+->687+r<*-): {rn oqj oqj o o o rn V V |
  1
,+->687+r<*-): {rn roqj oqj o o o rn V V |
  1
/061+ {rn roqj roqj roqj |
  1
,+->687+r<*-): {rn roqj o roqj o n o V V |
  1
/061+ {rn roqj oqj roqj |
  0
ENDBLK
  5
64
330
61
100
AcDbEntity
  8
0
100
AcDbBlockEnd
  0
BLOCK
  5
67
330
66
100
AcDbEntity
  8
0
100
AcDbBlockBegin
  2
SPHERE
 70
     0
 10
0.0
 20
0.0
 30
0.0
  3
SPHERE
  1

  0
3DSOLID
  5
68
330
66
100
AcDbEntity
  8
0
100
AcDbModelerGeometry
 70
     1
  1
koo j n o           
  1
h J1410(1 nl ^ \VL kqoqm QK mk R01 ^ /- nh nhemlelj mooi 
  1
rn fqfffffffffffffffj:rooh n:rono 
  1
=0;& {rn {n {rn {rn |
  1
3*2/ {rn {rn {m {o |
  1
,7:33 {rn {rn {rn {l {rn {n |
  1
9><: {rn {rn {rn {m {rn {k 90-(>-; ,6183: |
  1
,/7:-:r,*-9><: {rn o o o oqj n o o o o n 90-(>-;@) V V V V |
  0
ENDBLK
  5
69
330
66
100
AcDbEntity
  8
0
100
AcDbBlockEnd
  0
BLOCK
  5
A3
330
A2
100
AcDbEntity
  8
0
100
AcDbBlockBegin
  2
UX
 70
     0
 10
0.0
 20
0.0
 30
0.0
  3
UX
  1

  0
POLYLINE
  5
A4
330
A2
100
AcDbEntity
  8
0
100
AcDbPolygonMesh
 66
     1
 10
0.0
 20
0.0
 30
0.0
 70
    16
 71
     4
 72
     4
  0
VERTEX
  5
A5
330
A4
100
AcDbEntity
  8
0
100
AcDbVertex
100
AcDbPolygonMeshVertex
 10
0.0
 20
0.0
 30
0.0
 70
    64
  0
VERTEX
  5
A6
330
A4
100
AcDbEntity
  8
0
100
AcDbVertex
100
AcDbPolygonMeshVertex
 10
0.0
 20
0.0
 30
0.0
 70
    64
  0
VERTEX
  5
A7
330
A4
100
AcDbEntity
  8
0
100
AcDbVertex
100
AcDbPolygonMeshVertex
 10
0.0
 20
0.0
 30
0.0
 70
    64
  0
VERTEX
  5
A8
330
A4
100
AcDbEntity
  8
0
100
AcDbVertex
100
AcDbPolygonMeshVertex
 10
0.0
 20
0.0
 30
0.0
 70
    64
  0
VERTEX
  5
A9
330
A4
100
AcDbEntity
  8
0
100
AcDbVertex
100
AcDbPolygonMeshVertex
 10
0.0
 20
0.0
 30
0.0
 70
    64
  0
VERTEX
  5
AA
330
A4
100
AcDbEntity
  8
0
100
AcDbVertex
100
AcDbPolygonMeshVertex
 10
-1.0
 20
0.5
 30
0.5
 70
    64
  0
VERTEX
  5
AB
330
A4
100
AcDbEntity
  8
0
100
AcDbVertex
100
AcDbPolygonMeshVertex
 10
-1.0
 20
0.5
 30
-0.5
 70
    64
  0
VERTEX
  5
AC
330
A4
100
AcDbEntity
  8
0
100
AcDbVertex
100
AcDbPolygonMeshVertex
 10
0.0
 20
0.0
 30
0.0
 70
    64
  0
VERTEX
  5
AD
330
A4
100
AcDbEntity
  8
0
100
AcDbVertex
100
AcDbPolygonMeshVertex
 10
0.0
 20
0.0
 30
0.0
 70
    64
  0
VERTEX
  5
AE
330
A4
100
AcDbEntity
  8
0
100
AcDbVertex
100
AcDbPolygonMeshVertex
 10
-1.0
 20
-0.5
 30
0.5
 70
    64
  0
VERTEX
  5
AF
330
A4
100
AcDbEntity
  8
0
100
AcDbVertex
100
AcDbPolygonMeshVertex
 10
-1.0
 20
-0.5
 30
-0.5
 70
    64
  0
VERTEX
  5
B0
330
A4
100
AcDbEntity
  8
0
100
AcDbVertex
100
AcDbPolygonMeshVertex
 10
0.0
 20
0.0
 30
0.0
 70
    64
  0
VERTEX
  5
B1
330
A4
100
AcDbEntity
  8
0
100
AcDbVertex
100
AcDbPolygonMeshVertex
 10
0.0
 20
0.0
 30
0.0
 70
    64
  0
VERTEX
  5
B2
330
A4
100
AcDbEntity
  8
0
100
AcDbVertex
100
AcDbPolygonMeshVertex
 10
0.0
 20
0.0
 30
0.0
 70
    64
  0
VERTEX
  5
B3
330
A4
100
AcDbEntity
  8
0
100
AcDbVertex
100
AcDbPolygonMeshVertex
 10
0.0
 20
0.0
 30
0.0
 70
    64
  0
VERTEX
  5
B4
330
A4
100
AcDbEntity
  8
0
100
AcDbVertex
100
AcDbPolygonMeshVertex
 10
0.0
 20
0.0
 30
0.0
 70
    64
  0
SEQEND
  5
B5
330
A4
100
AcDbEntity
  8
0
  0
ENDBLK
  5
B6
330
A2
100
AcDbEntity
  8
0
100
AcDbBlockEnd
  0
BLOCK
  5
B8
330
B7
100
AcDbEntity
  8
0
100
AcDbBlockBegin
  2
UY
 70
     0
 10
0.0
 20
0.0
 30
0.0
  3
UY
  1

  0
POLYLINE
  5
B9
330
B7
100
AcDbEntity
  8
0
100
AcDbPolygonMesh
 66
     1
 10
0.0
 20
0.0
 30
0.0
 70
    16
 71
     4
 72
     4
  0
VERTEX
  5
BA
330
B9
100
AcDbEntity
  8
0
100
AcDbVertex
100
AcDbPolygonMeshVertex
 10
0.0
 20
0.0
 30
0.0
 70
    64
  0
VERTEX
  5
BB
330
B9
100
AcDbEntity
  8
0
100
AcDbVertex
100
AcDbPolygonMeshVertex
 10
0.0
 20
0.0
 30
0.0
 70
    64
  0
VERTEX
  5
BC
330
B9
100
AcDbEntity
  8
0
100
AcDbVertex
100
AcDbPolygonMeshVertex
 10
0.0
 20
0.0
 30
0.0
 70
    64
  0
VERTEX
  5
BD
330
B9
100
AcDbEntity
  8
0
100
AcDbVertex
100
AcDbPolygonMeshVertex
 10
0.0
 20
0.0
 30
0.0
 70
    64
  0
VERTEX
  5
BE
330
B9
100
AcDbEntity
  8
0
100
AcDbVertex
100
AcDbPolygonMeshVertex
 10
0.0
 20
0.0
 30
0.0
 70
    64
  0
VERTEX
  5
BF
330
B9
100
AcDbEntity
  8
0
100
AcDbVertex
100
AcDbPolygonMeshVertex
 10
-0.5
 20
-1.0
 30
0.5
 70
    64
  0
VERTEX
  5
C0
330
B9
100
AcDbEntity
  8
0
100
AcDbVertex
100
AcDbPolygonMeshVertex
 10
-0.5
 20
-1.0
 30
-0.5
 70
    64
  0
VERTEX
  5
C1
330
B9
100
AcDbEntity
  8
0
100
AcDbVertex
100
AcDbPolygonMeshVertex
 10
0.0
 20
0.0
 30
0.0
 70
    64
  0
VERTEX
  5
C2
330
B9
100
AcDbEntity
  8
0
100
AcDbVertex
100
AcDbPolygonMeshVertex
 10
0.0
 20
0.0
 30
0.0
 70
    64
  0
VERTEX
  5
C3
330
B9
100
AcDbEntity
  8
0
100
AcDbVertex
100
AcDbPolygonMeshVertex
 10
0.5
 20
-1.0
 30
0.5
 70
    64
  0
VERTEX
  5
C4
330
B9
100
AcDbEntity
  8
0
100
AcDbVertex
100
AcDbPolygonMeshVertex
 10
0.5
 20
-1.0
 30
-0.5
 70
    64
  0
VERTEX
  5
C5
330
B9
100
AcDbEntity
  8
0
100
AcDbVertex
100
AcDbPolygonMeshVertex
 10
0.0
 20
0.0
 30
0.0
 70
    64
  0
VERTEX
  5
C6
330
B9
100
AcDbEntity
  8
0
100
AcDbVertex
100
AcDbPolygonMeshVertex
 10
0.0
 20
0.0
 30
0.0
 70
    64
  0
VERTEX
  5
C7
330
B9
100
AcDbEntity
  8
0
100
AcDbVertex
100
AcDbPolygonMeshVertex
 10
0.0
 20
0.0
 30
0.0
 70
    64
  0
VERTEX
  5
C8
330
B9
100
AcDbEntity
  8
0
100
AcDbVertex
100
AcDbPolygonMeshVertex
 10
0.0
 20
0.0
 30
0.0
 70
    64
  0
VERTEX
  5
C9
330
B9
100
AcDbEntity
  8
0
100
AcDbVertex
100
AcDbPolygonMeshVertex
 10
0.0
 20
0.0
 30
0.0
 70
    64
  0
SEQEND
  5
CA
330
B9
100
AcDbEntity
  8
0
  0
ENDBLK
  5
CB
330
B7
100
AcDbEntity
  8
0
100
AcDbBlockEnd
  0
BLOCK
  5
CD
330
CC
100
AcDbEntity
  8
0
100
AcDbBlockBegin
  2
UZ
 70
     0
 10
0.0
 20
0.0
 30
0.0
  3
UZ
  1

  0
POLYLINE
  5
CE
330
CC
100
AcDbEntity
  8
0
100
AcDbPolygonMesh
 66
     1
 10
0.0
 20
0.0
 30
0.0
 70
    16
 71
     4
 72
     4
  0
VERTEX
  5
CF
330
CE
100
AcDbEntity
  8
0
100
AcDbVertex
100
AcDbPolygonMeshVertex
 10
0.0
 20
0.0
 30
0.0
 70
    64
  0
VERTEX
  5
D0
330
CE
100
AcDbEntity
  8
0
100
AcDbVertex
100
AcDbPolygonMeshVertex
 10
0.0
 20
0.0
 30
0.0
 70
    64
  0
VERTEX
  5
D1
330
CE
100
AcDbEntity
  8
0
100
AcDbVertex
100
AcDbPolygonMeshVertex
 10
0.0
 20
0.0
 30
0.0
 70
    64
  0
VERTEX
  5
D2
330
CE
100
AcDbEntity
  8
0
100
AcDbVertex
100
AcDbPolygonMeshVertex
 10
0.0
 20
0.0
 30
0.0
 70
    64
  0
VERTEX
  5
D3
330
CE
100
AcDbEntity
  8
0
100
AcDbVertex
100
AcDbPolygonMeshVertex
 10
0.0
 20
0.0
 30
0.0
 70
    64
  0
VERTEX
  5
D4
330
CE
100
AcDbEntity
  8
0
100
AcDbVertex
100
AcDbPolygonMeshVertex
 10
-0.5
 20
0.5
 30
-1.0
 70
    64
  0
VERTEX
  5
D5
330
CE
100
AcDbEntity
  8
0
100
AcDbVertex
100
AcDbPolygonMeshVertex
 10
0.5
 20
0.5
 30
-1.0
 70
    64
  0
VERTEX
  5
D6
330
CE
100
AcDbEntity
  8
0
100
AcDbVertex
100
AcDbPolygonMeshVertex
 10
0.0
 20
0.0
 30
0.0
 70
    64
  0
VERTEX
  5
D7
330
CE
100
AcDbEntity
  8
0
100
AcDbVertex
100
AcDbPolygonMeshVertex
 10
0.0
 20
0.0
 30
0.0
 70
    64
  0
VERTEX
  5
D8
330
CE
100
AcDbEntity
  8
0
100
AcDbVertex
100
AcDbPolygonMeshVertex
 10
-0.5
 20
-0.5
 30
-1.0
 70
    64
  0
VERTEX
  5
D9
330
CE
100
AcDbEntity
  8
0
100
AcDbVertex
100
AcDbPolygonMeshVertex
 10
0.5
 20
-0.5
 30
-1.0
 70
    64
  0
VERTEX
  5
DA
330
CE
100
AcDbEntity
  8
0
100
AcDbVertex
100
AcDbPolygonMeshVertex
 10
0.0
 20
0.0
 30
0.0
 70
    64
  0
VERTEX
  5
DB
330
CE
100
AcDbEntity
  8
0
100
AcDbVertex
100
AcDbPolygonMeshVertex
 10
0.0
 20
0.0
 30
0.0
 70
    64
  0
VERTEX
  5
DC
330
CE
100
AcDbEntity
  8
0
100
AcDbVertex
100
AcDbPolygonMeshVertex
 10
0.0
 20
0.0
 30
0.0
 70
    64
  0
VERTEX
  5
DD
330
CE
100
AcDbEntity
  8
0
100
AcDbVertex
100
AcDbPolygonMeshVertex
 10
0.0
 20
0.0
 30
0.0
 70
    64
  0
VERTEX
  5
DE
330
CE
100
AcDbEntity
  8
0
100
AcDbVertex
100
AcDbPolygonMeshVertex
 10
0.0
 20
0.0
 30
0.0
 70
    64
  0
SEQEND
  5
DF
330
CE
100
AcDbEntity
  8
0
  0
ENDBLK
  5
E0
330
CC
100
AcDbEntity
  8
0
100
AcDbBlockEnd
  0
BLOCK
  5
1B9
330
1B8
100
AcDbEntity
  8
0
100
AcDbBlockBegin
  2
RX
 70
     0
 10
0.0
 20
0.0
 30
0.0
  3
RX
  1

  0
POLYLINE
  5
1BA
330
1B8
100
AcDbEntity
  8
0
100
AcDbPolygonMesh
 66
     1
 10
0.0
 20
0.0
 30
0.0
 70
    48
 71
     2
 72
    16
  0
VERTEX
  5
1BB
330
1BA
100
AcDbEntity
  8
0
100
AcDbVertex
100
AcDbPolygonMeshVertex
 10
-1.0
 20
0.0
 30
-0.5
 70
    64
  0
VERTEX
  5
1BC
330
1BA
100
AcDbEntity
  8
0
100
AcDbVertex
100
AcDbPolygonMeshVertex
 10
-1.0
 20
0.191342
 30
-0.46194
 70
    64
  0
VERTEX
  5
1BD
330
1BA
100
AcDbEntity
  8
0
100
AcDbVertex
100
AcDbPolygonMeshVertex
 10
-1.0
 20
0.353553
 30
-0.353553
 70
    64
  0
VERTEX
  5
1BE
330
1BA
100
AcDbEntity
  8
0
100
AcDbVertex
100
AcDbPolygonMeshVertex
 10
-1.0
 20
0.46194
 30
-0.191342
 70
    64
  0
VERTEX
  5
1BF
330
1BA
100
AcDbEntity
  8
0
100
AcDbVertex
100
AcDbPolygonMeshVertex
 10
-1.0
 20
0.5
 30
0.0
 70
    64
  0
VERTEX
  5
1C0
330
1BA
100
AcDbEntity
  8
0
100
AcDbVertex
100
AcDbPolygonMeshVertex
 10
-1.0
 20
0.46194
 30
0.191342
 70
    64
  0
VERTEX
  5
1C1
330
1BA
100
AcDbEntity
  8
0
100
AcDbVertex
100
AcDbPolygonMeshVertex
 10
-1.0
 20
0.353553
 30
0.353553
 70
    64
  0
VERTEX
  5
1C2
330
1BA
100
AcDbEntity
  8
0
100
AcDbVertex
100
AcDbPolygonMeshVertex
 10
-1.0
 20
0.191342
 30
0.46194
 70
    64
  0
VERTEX
  5
1C3
330
1BA
100
AcDbEntity
  8
0
100
AcDbVertex
100
AcDbPolygonMeshVertex
 10
-1.0
 20
0.0
 30
0.5
 70
    64
  0
VERTEX
  5
1C4
330
1BA
100
AcDbEntity
  8
0
100
AcDbVertex
100
AcDbPolygonMeshVertex
 10
-1.0
 20
-0.191342
 30
0.46194
 70
    64
  0
VERTEX
  5
1C5
330
1BA
100
AcDbEntity
  8
0
100
AcDbVertex
100
AcDbPolygonMeshVertex
 10
-1.0
 20
-0.353553
 30
0.353553
 70
    64
  0
VERTEX
  5
1C6
330
1BA
100
AcDbEntity
  8
0
100
AcDbVertex
100
AcDbPolygonMeshVertex
 10
-1.0
 20
-0.46194
 30
0.191342
 70
    64
  0
VERTEX
  5
1C7
330
1BA
100
AcDbEntity
  8
0
100
AcDbVertex
100
AcDbPolygonMeshVertex
 10
-1.0
 20
-0.5
 30
0.0
 70
    64
  0
VERTEX
  5
1C8
330
1BA
100
AcDbEntity
  8
0
100
AcDbVertex
100
AcDbPolygonMeshVertex
 10
-1.0
 20
-0.46194
 30
-0.191342
 70
    64
  0
VERTEX
  5
1C9
330
1BA
100
AcDbEntity
  8
0
100
AcDbVertex
100
AcDbPolygonMeshVertex
 10
-1.0
 20
-0.353553
 30
-0.353553
 70
    64
  0
VERTEX
  5
1CA
330
1BA
100
AcDbEntity
  8
0
100
AcDbVertex
100
AcDbPolygonMeshVertex
 10
-1.0
 20
-0.191342
 30
-0.46194
 70
    64
  0
VERTEX
  5
1CB
330
1BA
100
AcDbEntity
  8
0
100
AcDbVertex
100
AcDbPolygonMeshVertex
 10
0.0
 20
0.0
 30
0.0
 70
    64
  0
VERTEX
  5
1CC
330
1BA
100
AcDbEntity
  8
0
100
AcDbVertex
100
AcDbPolygonMeshVertex
 10
0.0
 20
0.0
 30
0.0
 70
    64
  0
VERTEX
  5
1CD
330
1BA
100
AcDbEntity
  8
0
100
AcDbVertex
100
AcDbPolygonMeshVertex
 10
0.0
 20
0.0
 30
0.0
 70
    64
  0
VERTEX
  5
1CE
330
1BA
100
AcDbEntity
  8
0
100
AcDbVertex
100
AcDbPolygonMeshVertex
 10
0.0
 20
0.0
 30
0.0
 70
    64
  0
VERTEX
  5
1CF
330
1BA
100
AcDbEntity
  8
0
100
AcDbVertex
100
AcDbPolygonMeshVertex
 10
0.0
 20
0.0
 30
0.0
 70
    64
  0
VERTEX
  5
1D0
330
1BA
100
AcDbEntity
  8
0
100
AcDbVertex
100
AcDbPolygonMeshVertex
 10
0.0
 20
0.0
 30
0.0
 70
    64
  0
VERTEX
  5
1D1
330
1BA
100
AcDbEntity
  8
0
100
AcDbVertex
100
AcDbPolygonMeshVertex
 10
0.0
 20
0.0
 30
0.0
 70
    64
  0
VERTEX
  5
1D2
330
1BA
100
AcDbEntity
  8
0
100
AcDbVertex
100
AcDbPolygonMeshVertex
 10
0.0
 20
0.0
 30
0.0
 70
    64
  0
VERTEX
  5
1D3
330
1BA
100
AcDbEntity
  8
0
100
AcDbVertex
100
AcDbPolygonMeshVertex
 10
0.0
 20
0.0
 30
0.0
 70
    64
  0
VERTEX
  5
1D4
330
1BA
100
AcDbEntity
  8
0
100
AcDbVertex
100
AcDbPolygonMeshVertex
 10
0.0
 20
0.0
 30
0.0
 70
    64
  0
VERTEX
  5
1D5
330
1BA
100
AcDbEntity
  8
0
100
AcDbVertex
100
AcDbPolygonMeshVertex
 10
0.0
 20
0.0
 30
0.0
 70
    64
  0
VERTEX
  5
1D6
330
1BA
100
AcDbEntity
  8
0
100
AcDbVertex
100
AcDbPolygonMeshVertex
 10
0.0
 20
0.0
 30
0.0
 70
    64
  0
VERTEX
  5
1D7
330
1BA
100
AcDbEntity
  8
0
100
AcDbVertex
100
AcDbPolygonMeshVertex
 10
0.0
 20
0.0
 30
0.0
 70
    64
  0
VERTEX
  5
1D8
330
1BA
100
AcDbEntity
  8
0
100
AcDbVertex
100
AcDbPolygonMeshVertex
 10
0.0
 20
0.0
 30
0.0
 70
    64
  0
VERTEX
  5
1D9
330
1BA
100
AcDbEntity
  8
0
100
AcDbVertex
100
AcDbPolygonMeshVertex
 10
0.0
 20
0.0
 30
0.0
 70
    64
  0
VERTEX
  5
1DA
330
1BA
100
AcDbEntity
  8
0
100
AcDbVertex
100
AcDbPolygonMeshVertex
 10
0.0
 20
0.0
 30
0.0
 70
    64
  0
SEQEND
  5
1DB
330
1BA
100
AcDbEntity
  8
0
  0
POLYLINE
  5
1DC
330
1B8
100
AcDbEntity
  8
0
100
AcDbPolygonMesh
 66
     1
 10
0.0
 20
0.0
 30
0.0
 70
    48
 71
     2
 72
    16
  0
VERTEX
  5
1DD
330
1DC
100
AcDbEntity
  8
0
100
AcDbVertex
100
AcDbPolygonMeshVertex
 10
-2.0
 20
0.0
 30
-0.5
 70
    64
  0
VERTEX
  5
1DE
330
1DC
100
AcDbEntity
  8
0
100
AcDbVertex
100
AcDbPolygonMeshVertex
 10
-2.0
 20
0.191342
 30
-0.46194
 70
    64
  0
VERTEX
  5
1DF
330
1DC
100
AcDbEntity
  8
0
100
AcDbVertex
100
AcDbPolygonMeshVertex
 10
-2.0
 20
0.353553
 30
-0.353553
 70
    64
  0
VERTEX
  5
1E0
330
1DC
100
AcDbEntity
  8
0
100
AcDbVertex
100
AcDbPolygonMeshVertex
 10
-2.0
 20
0.46194
 30
-0.191342
 70
    64
  0
VERTEX
  5
1E1
330
1DC
100
AcDbEntity
  8
0
100
AcDbVertex
100
AcDbPolygonMeshVertex
 10
-2.0
 20
0.5
 30
0.0
 70
    64
  0
VERTEX
  5
1E2
330
1DC
100
AcDbEntity
  8
0
100
AcDbVertex
100
AcDbPolygonMeshVertex
 10
-2.0
 20
0.46194
 30
0.191342
 70
    64
  0
VERTEX
  5
1E3
330
1DC
100
AcDbEntity
  8
0
100
AcDbVertex
100
AcDbPolygonMeshVertex
 10
-2.0
 20
0.353553
 30
0.353553
 70
    64
  0
VERTEX
  5
1E4
330
1DC
100
AcDbEntity
  8
0
100
AcDbVertex
100
AcDbPolygonMeshVertex
 10
-2.0
 20
0.191342
 30
0.46194
 70
    64
  0
VERTEX
  5
1E5
330
1DC
100
AcDbEntity
  8
0
100
AcDbVertex
100
AcDbPolygonMeshVertex
 10
-2.0
 20
0.0
 30
0.5
 70
    64
  0
VERTEX
  5
1E6
330
1DC
100
AcDbEntity
  8
0
100
AcDbVertex
100
AcDbPolygonMeshVertex
 10
-2.0
 20
-0.191342
 30
0.46194
 70
    64
  0
VERTEX
  5
1E7
330
1DC
100
AcDbEntity
  8
0
100
AcDbVertex
100
AcDbPolygonMeshVertex
 10
-2.0
 20
-0.353553
 30
0.353553
 70
    64
  0
VERTEX
  5
1E8
330
1DC
100
AcDbEntity
  8
0
100
AcDbVertex
100
AcDbPolygonMeshVertex
 10
-2.0
 20
-0.46194
 30
0.191342
 70
    64
  0
VERTEX
  5
1E9
330
1DC
100
AcDbEntity
  8
0
100
AcDbVertex
100
AcDbPolygonMeshVertex
 10
-2.0
 20
-0.5
 30
0.0
 70
    64
  0
VERTEX
  5
1EA
330
1DC
100
AcDbEntity
  8
0
100
AcDbVertex
100
AcDbPolygonMeshVertex
 10
-2.0
 20
-0.46194
 30
-0.191342
 70
    64
  0
VERTEX
  5
1EB
330
1DC
100
AcDbEntity
  8
0
100
AcDbVertex
100
AcDbPolygonMeshVertex
 10
-2.0
 20
-0.353553
 30
-0.353553
 70
    64
  0
VERTEX
  5
1EC
330
1DC
100
AcDbEntity
  8
0
100
AcDbVertex
100
AcDbPolygonMeshVertex
 10
-2.0
 20
-0.191342
 30
-0.46194
 70
    64
  0
VERTEX
  5
1ED
330
1DC
100
AcDbEntity
  8
0
100
AcDbVertex
100
AcDbPolygonMeshVertex
 10
-1.0
 20
0.0
 30
0.0
 70
    64
  0
VERTEX
  5
1EE
330
1DC
100
AcDbEntity
  8
0
100
AcDbVertex
100
AcDbPolygonMeshVertex
 10
-1.0
 20
0.0
 30
0.0
 70
    64
  0
VERTEX
  5
1EF
330
1DC
100
AcDbEntity
  8
0
100
AcDbVertex
100
AcDbPolygonMeshVertex
 10
-1.0
 20
0.0
 30
0.0
 70
    64
  0
VERTEX
  5
1F0
330
1DC
100
AcDbEntity
  8
0
100
AcDbVertex
100
AcDbPolygonMeshVertex
 10
-1.0
 20
0.0
 30
0.0
 70
    64
  0
VERTEX
  5
1F1
330
1DC
100
AcDbEntity
  8
0
100
AcDbVertex
100
AcDbPolygonMeshVertex
 10
-1.0
 20
0.0
 30
0.0
 70
    64
  0
VERTEX
  5
1F2
330
1DC
100
AcDbEntity
  8
0
100
AcDbVertex
100
AcDbPolygonMeshVertex
 10
-1.0
 20
0.0
 30
0.0
 70
    64
  0
VERTEX
  5
1F3
330
1DC
100
AcDbEntity
  8
0
100
AcDbVertex
100
AcDbPolygonMeshVertex
 10
-1.0
 20
0.0
 30
0.0
 70
    64
  0
VERTEX
  5
1F4
330
1DC
100
AcDbEntity
  8
0
100
AcDbVertex
100
AcDbPolygonMeshVertex
 10
-1.0
 20
0.0
 30
0.0
 70
    64
  0
VERTEX
  5
1F5
330
1DC
100
AcDbEntity
  8
0
100
AcDbVertex
100
AcDbPolygonMeshVertex
 10
-1.0
 20
0.0
 30
0.0
 70
    64
  0
VERTEX
  5
1F6
330
1DC
100
AcDbEntity
  8
0
100
AcDbVertex
100
AcDbPolygonMeshVertex
 10
-1.0
 20
0.0
 30
0.0
 70
    64
  0
VERTEX
  5
1F7
330
1DC
100
AcDbEntity
  8
0
100
AcDbVertex
100
AcDbPolygonMeshVertex
 10
-1.0
 20
0.0
 30
0.0
 70
    64
  0
VERTEX
  5
1F8
330
1DC
100
AcDbEntity
  8
0
100
AcDbVertex
100
AcDbPolygonMeshVertex
 10
-1.0
 20
0.0
 30
0.0
 70
    64
  0
VERTEX
  5
1F9
330
1DC
100
AcDbEntity
  8
0
100
AcDbVertex
100
AcDbPolygonMeshVertex
 10
-1.0
 20
0.0
 30
0.0
 70
    64
  0
VERTEX
  5
1FA
330
1DC
100
AcDbEntity
  8
0
100
AcDbVertex
100
AcDbPolygonMeshVertex
 10
-1.0
 20
0.0
 30
0.0
 70
    64
  0
VERTEX
  5
1FB
330
1DC
100
AcDbEntity
  8
0
100
AcDbVertex
100
AcDbPolygonMeshVertex
 10
-1.0
 20
0.0
 30
0.0
 70
    64
  0
VERTEX
  5
1FC
330
1DC
100
AcDbEntity
  8
0
100
AcDbVertex
100
AcDbPolygonMeshVertex
 10
-1.0
 20
0.0
 30
0.0
 70
    64
  0
SEQEND
  5
1FD
330
1DC
100
AcDbEntity
  8
0
  0
ENDBLK
  5
1FE
330
1B8
100
AcDbEntity
  8
0
100
AcDbBlockEnd
  0
BLOCK
  5
200
330
1FF
100
AcDbEntity
  8
0
100
AcDbBlockBegin
  2
RY
 70
     0
 10
0.0
 20
0.0
 30
0.0
  3
RY
  1

  0
POLYLINE
  5
201
330
1FF
100
AcDbEntity
  8
0
100
AcDbPolygonMesh
 66
     1
 10
0.0
 20
0.0
 30
0.0
 70
    48
 71
     2
 72
    16
  0
VERTEX
  5
202
330
201
100
AcDbEntity
  8
0
100
AcDbVertex
100
AcDbPolygonMeshVertex
 10
0.0
 20
-1.0
 30
-0.5
 70
    64
  0
VERTEX
  5
203
330
201
100
AcDbEntity
  8
0
100
AcDbVertex
100
AcDbPolygonMeshVertex
 10
-0.191342
 20
-1.0
 30
-0.46194
 70
    64
  0
VERTEX
  5
204
330
201
100
AcDbEntity
  8
0
100
AcDbVertex
100
AcDbPolygonMeshVertex
 10
-0.353553
 20
-1.0
 30
-0.353553
 70
    64
  0
VERTEX
  5
205
330
201
100
AcDbEntity
  8
0
100
AcDbVertex
100
AcDbPolygonMeshVertex
 10
-0.46194
 20
-1.0
 30
-0.191342
 70
    64
  0
VERTEX
  5
206
330
201
100
AcDbEntity
  8
0
100
AcDbVertex
100
AcDbPolygonMeshVertex
 10
-0.5
 20
-1.0
 30
0.0
 70
    64
  0
VERTEX
  5
207
330
201
100
AcDbEntity
  8
0
100
AcDbVertex
100
AcDbPolygonMeshVertex
 10
-0.46194
 20
-1.0
 30
0.191342
 70
    64
  0
VERTEX
  5
208
330
201
100
AcDbEntity
  8
0
100
AcDbVertex
100
AcDbPolygonMeshVertex
 10
-0.353553
 20
-1.0
 30
0.353553
 70
    64
  0
VERTEX
  5
209
330
201
100
AcDbEntity
  8
0
100
AcDbVertex
100
AcDbPolygonMeshVertex
 10
-0.191342
 20
-1.0
 30
0.46194
 70
    64
  0
VERTEX
  5
20A
330
201
100
AcDbEntity
  8
0
100
AcDbVertex
100
AcDbPolygonMeshVertex
 10
0.0
 20
-1.0
 30
0.5
 70
    64
  0
VERTEX
  5
20B
330
201
100
AcDbEntity
  8
0
100
AcDbVertex
100
AcDbPolygonMeshVertex
 10
0.191342
 20
-1.0
 30
0.46194
 70
    64
  0
VERTEX
  5
20C
330
201
100
AcDbEntity
  8
0
100
AcDbVertex
100
AcDbPolygonMeshVertex
 10
0.353553
 20
-1.0
 30
0.353553
 70
    64
  0
VERTEX
  5
20D
330
201
100
AcDbEntity
  8
0
100
AcDbVertex
100
AcDbPolygonMeshVertex
 10
0.46194
 20
-1.0
 30
0.191342
 70
    64
  0
VERTEX
  5
20E
330
201
100
AcDbEntity
  8
0
100
AcDbVertex
100
AcDbPolygonMeshVertex
 10
0.5
 20
-1.0
 30
0.0
 70
    64
  0
VERTEX
  5
20F
330
201
100
AcDbEntity
  8
0
100
AcDbVertex
100
AcDbPolygonMeshVertex
 10
0.46194
 20
-1.0
 30
-0.191342
 70
    64
  0
VERTEX
  5
210
330
201
100
AcDbEntity
  8
0
100
AcDbVertex
100
AcDbPolygonMeshVertex
 10
0.353553
 20
-1.0
 30
-0.353553
 70
    64
  0
VERTEX
  5
211
330
201
100
AcDbEntity
  8
0
100
AcDbVertex
100
AcDbPolygonMeshVertex
 10
0.191342
 20
-1.0
 30
-0.46194
 70
    64
  0
VERTEX
  5
212
330
201
100
AcDbEntity
  8
0
100
AcDbVertex
100
AcDbPolygonMeshVertex
 10
0.0
 20
0.0
 30
0.0
 70
    64
  0
VERTEX
  5
213
330
201
100
AcDbEntity
  8
0
100
AcDbVertex
100
AcDbPolygonMeshVertex
 10
0.0
 20
0.0
 30
0.0
 70
    64
  0
VERTEX
  5
214
330
201
100
AcDbEntity
  8
0
100
AcDbVertex
100
AcDbPolygonMeshVertex
 10
0.0
 20
0.0
 30
0.0
 70
    64
  0
VERTEX
  5
215
330
201
100
AcDbEntity
  8
0
100
AcDbVertex
100
AcDbPolygonMeshVertex
 10
0.0
 20
0.0
 30
0.0
 70
    64
  0
VERTEX
  5
216
330
201
100
AcDbEntity
  8
0
100
AcDbVertex
100
AcDbPolygonMeshVertex
 10
0.0
 20
0.0
 30
0.0
 70
    64
  0
VERTEX
  5
217
330
201
100
AcDbEntity
  8
0
100
AcDbVertex
100
AcDbPolygonMeshVertex
 10
0.0
 20
0.0
 30
0.0
 70
    64
  0
VERTEX
  5
218
330
201
100
AcDbEntity
  8
0
100
AcDbVertex
100
AcDbPolygonMeshVertex
 10
0.0
 20
0.0
 30
0.0
 70
    64
  0
VERTEX
  5
219
330
201
100
AcDbEntity
  8
0
100
AcDbVertex
100
AcDbPolygonMeshVertex
 10
0.0
 20
0.0
 30
0.0
 70
    64
  0
VERTEX
  5
21A
330
201
100
AcDbEntity
  8
0
100
AcDbVertex
100
AcDbPolygonMeshVertex
 10
0.0
 20
0.0
 30
0.0
 70
    64
  0
VERTEX
  5
21B
330
201
100
AcDbEntity
  8
0
100
AcDbVertex
100
AcDbPolygonMeshVertex
 10
0.0
 20
0.0
 30
0.0
 70
    64
  0
VERTEX
  5
21C
330
201
100
AcDbEntity
  8
0
100
AcDbVertex
100
AcDbPolygonMeshVertex
 10
0.0
 20
0.0
 30
0.0
 70
    64
  0
VERTEX
  5
21D
330
201
100
AcDbEntity
  8
0
100
AcDbVertex
100
AcDbPolygonMeshVertex
 10
0.0
 20
0.0
 30
0.0
 70
    64
  0
VERTEX
  5
21E
330
201
100
AcDbEntity
  8
0
100
AcDbVertex
100
AcDbPolygonMeshVertex
 10
0.0
 20
0.0
 30
0.0
 70
    64
  0
VERTEX
  5
21F
330
201
100
AcDbEntity
  8
0
100
AcDbVertex
100
AcDbPolygonMeshVertex
 10
0.0
 20
0.0
 30
0.0
 70
    64
  0
VERTEX
  5
220
330
201
100
AcDbEntity
  8
0
100
AcDbVertex
100
AcDbPolygonMeshVertex
 10
0.0
 20
0.0
 30
0.0
 70
    64
  0
VERTEX
  5
221
330
201
100
AcDbEntity
  8
0
100
AcDbVertex
100
AcDbPolygonMeshVertex
 10
0.0
 20
0.0
 30
0.0
 70
    64
  0
SEQEND
  5
222
330
201
100
AcDbEntity
  8
0
  0
POLYLINE
  5
223
330
1FF
100
AcDbEntity
  8
0
100
AcDbPolygonMesh
 66
     1
 10
0.0
 20
0.0
 30
0.0
 70
    48
 71
     2
 72
    16
  0
VERTEX
  5
224
330
223
100
AcDbEntity
  8
0
100
AcDbVertex
100
AcDbPolygonMeshVertex
 10
0.0
 20
-2.0
 30
-0.5
 70
    64
  0
VERTEX
  5
225
330
223
100
AcDbEntity
  8
0
100
AcDbVertex
100
AcDbPolygonMeshVertex
 10
-0.191342
 20
-2.0
 30
-0.46194
 70
    64
  0
VERTEX
  5
226
330
223
100
AcDbEntity
  8
0
100
AcDbVertex
100
AcDbPolygonMeshVertex
 10
-0.353553
 20
-2.0
 30
-0.353553
 70
    64
  0
VERTEX
  5
227
330
223
100
AcDbEntity
  8
0
100
AcDbVertex
100
AcDbPolygonMeshVertex
 10
-0.46194
 20
-2.0
 30
-0.191342
 70
    64
  0
VERTEX
  5
228
330
223
100
AcDbEntity
  8
0
100
AcDbVertex
100
AcDbPolygonMeshVertex
 10
-0.5
 20
-2.0
 30
0.0
 70
    64
  0
VERTEX
  5
229
330
223
100
AcDbEntity
  8
0
100
AcDbVertex
100
AcDbPolygonMeshVertex
 10
-0.46194
 20
-2.0
 30
0.191342
 70
    64
  0
VERTEX
  5
22A
330
223
100
AcDbEntity
  8
0
100
AcDbVertex
100
AcDbPolygonMeshVertex
 10
-0.353553
 20
-2.0
 30
0.353553
 70
    64
  0
VERTEX
  5
22B
330
223
100
AcDbEntity
  8
0
100
AcDbVertex
100
AcDbPolygonMeshVertex
 10
-0.191342
 20
-2.0
 30
0.46194
 70
    64
  0
VERTEX
  5
22C
330
223
100
AcDbEntity
  8
0
100
AcDbVertex
100
AcDbPolygonMeshVertex
 10
0.0
 20
-2.0
 30
0.5
 70
    64
  0
VERTEX
  5
22D
330
223
100
AcDbEntity
  8
0
100
AcDbVertex
100
AcDbPolygonMeshVertex
 10
0.191342
 20
-2.0
 30
0.46194
 70
    64
  0
VERTEX
  5
22E
330
223
100
AcDbEntity
  8
0
100
AcDbVertex
100
AcDbPolygonMeshVertex
 10
0.353553
 20
-2.0
 30
0.353553
 70
    64
  0
VERTEX
  5
22F
330
223
100
AcDbEntity
  8
0
100
AcDbVertex
100
AcDbPolygonMeshVertex
 10
0.46194
 20
-2.0
 30
0.191342
 70
    64
  0
VERTEX
  5
230
330
223
100
AcDbEntity
  8
0
100
AcDbVertex
100
AcDbPolygonMeshVertex
 10
0.5
 20
-2.0
 30
0.0
 70
    64
  0
VERTEX
  5
231
330
223
100
AcDbEntity
  8
0
100
AcDbVertex
100
AcDbPolygonMeshVertex
 10
0.46194
 20
-2.0
 30
-0.191342
 70
    64
  0
VERTEX
  5
232
330
223
100
AcDbEntity
  8
0
100
AcDbVertex
100
AcDbPolygonMeshVertex
 10
0.353553
 20
-2.0
 30
-0.353553
 70
    64
  0
VERTEX
  5
233
330
223
100
AcDbEntity
  8
0
100
AcDbVertex
100
AcDbPolygonMeshVertex
 10
0.191342
 20
-2.0
 30
-0.46194
 70
    64
  0
VERTEX
  5
234
330
223
100
AcDbEntity
  8
0
100
AcDbVertex
100
AcDbPolygonMeshVertex
 10
0.0
 20
-1.0
 30
0.0
 70
    64
  0
VERTEX
  5
235
330
223
100
AcDbEntity
  8
0
100
AcDbVertex
100
AcDbPolygonMeshVertex
 10
0.0
 20
-1.0
 30
0.0
 70
    64
  0
VERTEX
  5
236
330
223
100
AcDbEntity
  8
0
100
AcDbVertex
100
AcDbPolygonMeshVertex
 10
0.0
 20
-1.0
 30
0.0
 70
    64
  0
VERTEX
  5
237
330
223
100
AcDbEntity
  8
0
100
AcDbVertex
100
AcDbPolygonMeshVertex
 10
0.0
 20
-1.0
 30
0.0
 70
    64
  0
VERTEX
  5
238
330
223
100
AcDbEntity
  8
0
100
AcDbVertex
100
AcDbPolygonMeshVertex
 10
0.0
 20
-1.0
 30
0.0
 70
    64
  0
VERTEX
  5
239
330
223
100
AcDbEntity
  8
0
100
AcDbVertex
100
AcDbPolygonMeshVertex
 10
0.0
 20
-1.0
 30
0.0
 70
    64
  0
VERTEX
  5
23A
330
223
100
AcDbEntity
  8
0
100
AcDbVertex
100
AcDbPolygonMeshVertex
 10
0.0
 20
-1.0
 30
0.0
 70
    64
  0
VERTEX
  5
23B
330
223
100
AcDbEntity
  8
0
100
AcDbVertex
100
AcDbPolygonMeshVertex
 10
0.0
 20
-1.0
 30
0.0
 70
    64
  0
VERTEX
  5
23C
330
223
100
AcDbEntity
  8
0
100
AcDbVertex
100
AcDbPolygonMeshVertex
 10
0.0
 20
-1.0
 30
0.0
 70
    64
  0
VERTEX
  5
23D
330
223
100
AcDbEntity
  8
0
100
AcDbVertex
100
AcDbPolygonMeshVertex
 10
0.0
 20
-1.0
 30
0.0
 70
    64
  0
VERTEX
  5
23E
330
223
100
AcDbEntity
  8
0
100
AcDbVertex
100
AcDbPolygonMeshVertex
 10
0.0
 20
-1.0
 30
0.0
 70
    64
  0
VERTEX
  5
23F
330
223
100
AcDbEntity
  8
0
100
AcDbVertex
100
AcDbPolygonMeshVertex
 10
0.0
 20
-1.0
 30
0.0
 70
    64
  0
VERTEX
  5
240
330
223
100
AcDbEntity
  8
0
100
AcDbVertex
100
AcDbPolygonMeshVertex
 10
0.0
 20
-1.0
 30
0.0
 70
    64
  0
VERTEX
  5
241
330
223
100
AcDbEntity
  8
0
100
AcDbVertex
100
AcDbPolygonMeshVertex
 10
0.0
 20
-1.0
 30
0.0
 70
    64
  0
VERTEX
  5
242
330
223
100
AcDbEntity
  8
0
100
AcDbVertex
100
AcDbPolygonMeshVertex
 10
0.0
 20
-1.0
 30
0.0
 70
    64
  0
VERTEX
  5
243
330
223
100
AcDbEntity
  8
0
100
AcDbVertex
100
AcDbPolygonMeshVertex
 10
0.0
 20
-1.0
 30
0.0
 70
    64
  0
SEQEND
  5
244
330
223
100
AcDbEntity
  8
0
  0
ENDBLK
  5
245
330
1FF
100
AcDbEntity
  8
0
100
AcDbBlockEnd
  0
BLOCK
  5
247
330
246
100
AcDbEntity
  8
0
100
AcDbBlockBegin
  2
RZ
 70
     0
 10
0.0
 20
0.0
 30
0.0
  3
RZ
  1

  0
POLYLINE
  5
248
330
246
100
AcDbEntity
  8
0
100
AcDbPolygonMesh
 66
     1
 10
0.0
 20
0.0
 30
0.0
 70
    48
 71
     2
 72
    16
  0
VERTEX
  5
249
330
248
100
AcDbEntity
  8
0
100
AcDbVertex
100
AcDbPolygonMeshVertex
 10
0.5
 20
0.0
 30
-1.0
 70
    64
  0
VERTEX
  5
24A
330
248
100
AcDbEntity
  8
0
100
AcDbVertex
100
AcDbPolygonMeshVertex
 10
0.46194
 20
0.191342
 30
-1.0
 70
    64
  0
VERTEX
  5
24B
330
248
100
AcDbEntity
  8
0
100
AcDbVertex
100
AcDbPolygonMeshVertex
 10
0.353553
 20
0.353553
 30
-1.0
 70
    64
  0
VERTEX
  5
24C
330
248
100
AcDbEntity
  8
0
100
AcDbVertex
100
AcDbPolygonMeshVertex
 10
0.191342
 20
0.46194
 30
-1.0
 70
    64
  0
VERTEX
  5
24D
330
248
100
AcDbEntity
  8
0
100
AcDbVertex
100
AcDbPolygonMeshVertex
 10
0.0
 20
0.5
 30
-1.0
 70
    64
  0
VERTEX
  5
24E
330
248
100
AcDbEntity
  8
0
100
AcDbVertex
100
AcDbPolygonMeshVertex
 10
-0.191342
 20
0.46194
 30
-1.0
 70
    64
  0
VERTEX
  5
24F
330
248
100
AcDbEntity
  8
0
100
AcDbVertex
100
AcDbPolygonMeshVertex
 10
-0.353553
 20
0.353553
 30
-1.0
 70
    64
  0
VERTEX
  5
250
330
248
100
AcDbEntity
  8
0
100
AcDbVertex
100
AcDbPolygonMeshVertex
 10
-0.46194
 20
0.191342
 30
-1.0
 70
    64
  0
VERTEX
  5
251
330
248
100
AcDbEntity
  8
0
100
AcDbVertex
100
AcDbPolygonMeshVertex
 10
-0.5
 20
0.0
 30
-1.0
 70
    64
  0
VERTEX
  5
252
330
248
100
AcDbEntity
  8
0
100
AcDbVertex
100
AcDbPolygonMeshVertex
 10
-0.46194
 20
-0.191342
 30
-1.0
 70
    64
  0
VERTEX
  5
253
330
248
100
AcDbEntity
  8
0
100
AcDbVertex
100
AcDbPolygonMeshVertex
 10
-0.353553
 20
-0.353553
 30
-1.0
 70
    64
  0
VERTEX
  5
254
330
248
100
AcDbEntity
  8
0
100
AcDbVertex
100
AcDbPolygonMeshVertex
 10
-0.191342
 20
-0.46194
 30
-1.0
 70
    64
  0
VERTEX
  5
255
330
248
100
AcDbEntity
  8
0
100
AcDbVertex
100
AcDbPolygonMeshVertex
 10
0.0
 20
-0.5
 30
-1.0
 70
    64
  0
VERTEX
  5
256
330
248
100
AcDbEntity
  8
0
100
AcDbVertex
100
AcDbPolygonMeshVertex
 10
0.191342
 20
-0.46194
 30
-1.0
 70
    64
  0
VERTEX
  5
257
330
248
100
AcDbEntity
  8
0
100
AcDbVertex
100
AcDbPolygonMeshVertex
 10
0.353553
 20
-0.353553
 30
-1.0
 70
    64
  0
VERTEX
  5
258
330
248
100
AcDbEntity
  8
0
100
AcDbVertex
100
AcDbPolygonMeshVertex
 10
0.46194
 20
-0.191342
 30
-1.0
 70
    64
  0
VERTEX
  5
259
330
248
100
AcDbEntity
  8
0
100
AcDbVertex
100
AcDbPolygonMeshVertex
 10
0.0
 20
0.0
 30
0.0
 70
    64
  0
VERTEX
  5
25A
330
248
100
AcDbEntity
  8
0
100
AcDbVertex
100
AcDbPolygonMeshVertex
 10
0.0
 20
0.0
 30
0.0
 70
    64
  0
VERTEX
  5
25B
330
248
100
AcDbEntity
  8
0
100
AcDbVertex
100
AcDbPolygonMeshVertex
 10
0.0
 20
0.0
 30
0.0
 70
    64
  0
VERTEX
  5
25C
330
248
100
AcDbEntity
  8
0
100
AcDbVertex
100
AcDbPolygonMeshVertex
 10
0.0
 20
0.0
 30
0.0
 70
    64
  0
VERTEX
  5
25D
330
248
100
AcDbEntity
  8
0
100
AcDbVertex
100
AcDbPolygonMeshVertex
 10
0.0
 20
0.0
 30
0.0
 70
    64
  0
VERTEX
  5
25E
330
248
100
AcDbEntity
  8
0
100
AcDbVertex
100
AcDbPolygonMeshVertex
 10
0.0
 20
0.0
 30
0.0
 70
    64
  0
VERTEX
  5
25F
330
248
100
AcDbEntity
  8
0
100
AcDbVertex
100
AcDbPolygonMeshVertex
 10
0.0
 20
0.0
 30
0.0
 70
    64
  0
VERTEX
  5
260
330
248
100
AcDbEntity
  8
0
100
AcDbVertex
100
AcDbPolygonMeshVertex
 10
0.0
 20
0.0
 30
0.0
 70
    64
  0
VERTEX
  5
261
330
248
100
AcDbEntity
  8
0
100
AcDbVertex
100
AcDbPolygonMeshVertex
 10
0.0
 20
0.0
 30
0.0
 70
    64
  0
VERTEX
  5
262
330
248
100
AcDbEntity
  8
0
100
AcDbVertex
100
AcDbPolygonMeshVertex
 10
0.0
 20
0.0
 30
0.0
 70
    64
  0
VERTEX
  5
263
330
248
100
AcDbEntity
  8
0
100
AcDbVertex
100
AcDbPolygonMeshVertex
 10
0.0
 20
0.0
 30
0.0
 70
    64
  0
VERTEX
  5
264
330
248
100
AcDbEntity
  8
0
100
AcDbVertex
100
AcDbPolygonMeshVertex
 10
0.0
 20
0.0
 30
0.0
 70
    64
  0
VERTEX
  5
265
330
248
100
AcDbEntity
  8
0
100
AcDbVertex
100
AcDbPolygonMeshVertex
 10
0.0
 20
0.0
 30
0.0
 70
    64
  0
VERTEX
  5
266
330
248
100
AcDbEntity
  8
0
100
AcDbVertex
100
AcDbPolygonMeshVertex
 10
0.0
 20
0.0
 30
0.0
 70
    64
  0
VERTEX
  5
267
330
248
100
AcDbEntity
  8
0
100
AcDbVertex
100
AcDbPolygonMeshVertex
 10
0.0
 20
0.0
 30
0.0
 70
    64
  0
VERTEX
  5
268
330
248
100
AcDbEntity
  8
0
100
AcDbVertex
100
AcDbPolygonMeshVertex
 10
0.0
 20
0.0
 30
0.0
 70
    64
  0
SEQEND
  5
269
330
248
100
AcDbEntity
  8
0
  0
POLYLINE
  5
26A
330
246
100
AcDbEntity
  8
0
100
AcDbPolygonMesh
 66
     1
 10
0.0
 20
0.0
 30
0.0
 70
    48
 71
     2
 72
    16
  0
VERTEX
  5
26B
330
26A
100
AcDbEntity
  8
0
100
AcDbVertex
100
AcDbPolygonMeshVertex
 10
0.5
 20
0.0
 30
-2.0
 70
    64
  0
VERTEX
  5
26C
330
26A
100
AcDbEntity
  8
0
100
AcDbVertex
100
AcDbPolygonMeshVertex
 10
0.46194
 20
0.191342
 30
-2.0
 70
    64
  0
VERTEX
  5
26D
330
26A
100
AcDbEntity
  8
0
100
AcDbVertex
100
AcDbPolygonMeshVertex
 10
0.353553
 20
0.353553
 30
-2.0
 70
    64
  0
VERTEX
  5
26E
330
26A
100
AcDbEntity
  8
0
100
AcDbVertex
100
AcDbPolygonMeshVertex
 10
0.191342
 20
0.46194
 30
-2.0
 70
    64
  0
VERTEX
  5
26F
330
26A
100
AcDbEntity
  8
0
100
AcDbVertex
100
AcDbPolygonMeshVertex
 10
0.0
 20
0.5
 30
-2.0
 70
    64
  0
VERTEX
  5
270
330
26A
100
AcDbEntity
  8
0
100
AcDbVertex
100
AcDbPolygonMeshVertex
 10
-0.191342
 20
0.46194
 30
-2.0
 70
    64
  0
VERTEX
  5
271
330
26A
100
AcDbEntity
  8
0
100
AcDbVertex
100
AcDbPolygonMeshVertex
 10
-0.353553
 20
0.353553
 30
-2.0
 70
    64
  0
VERTEX
  5
272
330
26A
100
AcDbEntity
  8
0
100
AcDbVertex
100
AcDbPolygonMeshVertex
 10
-0.46194
 20
0.191342
 30
-2.0
 70
    64
  0
VERTEX
  5
273
330
26A
100
AcDbEntity
  8
0
100
AcDbVertex
100
AcDbPolygonMeshVertex
 10
-0.5
 20
0.0
 30
-2.0
 70
    64
  0
VERTEX
  5
274
330
26A
100
AcDbEntity
  8
0
100
AcDbVertex
100
AcDbPolygonMeshVertex
 10
-0.46194
 20
-0.191342
 30
-2.0
 70
    64
  0
VERTEX
  5
275
330
26A
100
AcDbEntity
  8
0
100
AcDbVertex
100
AcDbPolygonMeshVertex
 10
-0.353553
 20
-0.353553
 30
-2.0
 70
    64
  0
VERTEX
  5
276
330
26A
100
AcDbEntity
  8
0
100
AcDbVertex
100
AcDbPolygonMeshVertex
 10
-0.191342
 20
-0.46194
 30
-2.0
 70
    64
  0
VERTEX
  5
277
330
26A
100
AcDbEntity
  8
0
100
AcDbVertex
100
AcDbPolygonMeshVertex
 10
0.0
 20
-0.5
 30
-2.0
 70
    64
  0
VERTEX
  5
278
330
26A
100
AcDbEntity
  8
0
100
AcDbVertex
100
AcDbPolygonMeshVertex
 10
0.191342
 20
-0.46194
 30
-2.0
 70
    64
  0
VERTEX
  5
279
330
26A
100
AcDbEntity
  8
0
100
AcDbVertex
100
AcDbPolygonMeshVertex
 10
0.353553
 20
-0.353553
 30
-2.0
 70
    64
  0
VERTEX
  5
27A
330
26A
100
AcDbEntity
  8
0
100
AcDbVertex
100
AcDbPolygonMeshVertex
 10
0.46194
 20
-0.191342
 30
-2.0
 70
    64
  0
VERTEX
  5
27B
330
26A
100
AcDbEntity
  8
0
100
AcDbVertex
100
AcDbPolygonMeshVertex
 10
0.0
 20
0.0
 30
-1.0
 70
    64
  0
VERTEX
  5
27C
330
26A
100
AcDbEntity
  8
0
100
AcDbVertex
100
AcDbPolygonMeshVertex
 10
0.0
 20
0.0
 30
-1.0
 70
    64
  0
VERTEX
  5
27D
330
26A
100
AcDbEntity
  8
0
100
AcDbVertex
100
AcDbPolygonMeshVertex
 10
0.0
 20
0.0
 30
-1.0
 70
    64
  0
VERTEX
  5
27E
330
26A
100
AcDbEntity
  8
0
100
AcDbVertex
100
AcDbPolygonMeshVertex
 10
0.0
 20
0.0
 30
-1.0
 70
    64
  0
VERTEX
  5
27F
330
26A
100
AcDbEntity
  8
0
100
AcDbVertex
100
AcDbPolygonMeshVertex
 10
0.0
 20
0.0
 30
-1.0
 70
    64
  0
VERTEX
  5
280
330
26A
100
AcDbEntity
  8
0
100
AcDbVertex
100
AcDbPolygonMeshVertex
 10
0.0
 20
0.0
 30
-1.0
 70
    64
  0
VERTEX
  5
281
330
26A
100
AcDbEntity
  8
0
100
AcDbVertex
100
AcDbPolygonMeshVertex
 10
0.0
 20
0.0
 30
-1.0
 70
    64
  0
VERTEX
  5
282
330
26A
100
AcDbEntity
  8
0
100
AcDbVertex
100
AcDbPolygonMeshVertex
 10
0.0
 20
0.0
 30
-1.0
 70
    64
  0
VERTEX
  5
283
330
26A
100
AcDbEntity
  8
0
100
AcDbVertex
100
AcDbPolygonMeshVertex
 10
0.0
 20
0.0
 30
-1.0
 70
    64
  0
VERTEX
  5
284
330
26A
100
AcDbEntity
  8
0
100
AcDbVertex
100
AcDbPolygonMeshVertex
 10
0.0
 20
0.0
 30
-1.0
 70
    64
  0
VERTEX
  5
285
330
26A
100
AcDbEntity
  8
0
100
AcDbVertex
100
AcDbPolygonMeshVertex
 10
0.0
 20
0.0
 30
-1.0
 70
    64
  0
VERTEX
  5
286
330
26A
100
AcDbEntity
  8
0
100
AcDbVertex
100
AcDbPolygonMeshVertex
 10
0.0
 20
0.0
 30
-1.0
 70
    64
  0
VERTEX
  5
287
330
26A
100
AcDbEntity
  8
0
100
AcDbVertex
100
AcDbPolygonMeshVertex
 10
0.0
 20
0.0
 30
-1.0
 70
    64
  0
VERTEX
  5
288
330
26A
100
AcDbEntity
  8
0
100
AcDbVertex
100
AcDbPolygonMeshVertex
 10
0.0
 20
0.0
 30
-1.0
 70
    64
  0
VERTEX
  5
289
330
26A
100
AcDbEntity
  8
0
100
AcDbVertex
100
AcDbPolygonMeshVertex
 10
0.0
 20
0.0
 30
-1.0
 70
    64
  0
VERTEX
  5
28A
330
26A
100
AcDbEntity
  8
0
100
AcDbVertex
100
AcDbPolygonMeshVertex
 10
0.0
 20
0.0
 30
-1.0
 70
    64
  0
SEQEND
  5
28B
330
26A
100
AcDbEntity
  8
0
  0
ENDBLK
  5
28C
330
246
100
AcDbEntity
  8
0
100
AcDbBlockEnd
  0
BLOCK
  5
2FA
330
2F9
100
AcDbEntity
  8
0
100
AcDbBlockBegin
  2
XAXIS
 70
     0
 10
0.0
 20
0.0
 30
0.0
  3
XAXIS
  1

  0
3DSOLID
  5
2FB
330
2F9
100
AcDbEntity
  8
0
100
AcDbModelerGeometry
 70
     1
  1
koo mj n o          
  1
h J1410(1 nl ^ \VL kqoqm QK mk R01 ^ /- nh nhemlelj mooi 
  1
rn fqfffffffffffffffj:rooh n:rono 
  1
=0;& {rn {n {rn {rn |
  1
3*2/ {rn {rn {m {o |
  1
,7:33 {rn {rn {rn {l {rn {n |
  1
9><: {rn {k {j {m {rn {i 90-(>-; ,6183: |
  1
9><: {rn {h {g {m {rn {f 90-(>-; ,6183: |
  1
300/ {rn {no {nn {l |
  1
<01:r,*-9><: {rn n o nqnnommlomkimjnjij:roni n o iqnmlolnhifnnnggil:ronh lqoinjnjggkjjjfklm:rong o roqojoooooooooooooool n V V o n oqojoooooooooooooool 90-(>-; V V V V |
  1
9><: {rn {rn {nm {m {rn {nl 90-(>-; ,6183: |
  1
300/ {rn {rn {nk {k |
  1
/3>1:r,*-9><: {rn o o o rn o riqnmlolnhifnnnggil:ronh riqnmlolnhifnnnggil:ronh o n 90-(>-;@) V V V V |
  1
300/ {rn {rn {nj {l |
  1
<0:;8: {rn {nn {nn {nk {ni -:):-,:; {j {rn |
  1
300/ {rn {rn {nh {h |
  1
/3>1:r,*-9><: {rn m o nqnnommlomkimjnjij:roni n o iqnmlolnhifnnnggil:ronh iqnmlolnhifnnnggil:ronh o rn 90-(>-;@) V V V V |
  1
<0:;8: {rn {nk {nk {nn {ni 90-(>-; {g {rn |
  1
<0:;8: {rn {nj {nj {nh {ng -:):-,:; {no {rn |
  1
:;8: {rn {nf {nf {nk {mo 90-(>-; |
  1
<0:;8: {rn {nh {nh {nj {ng 90-(>-; {nm {rn |
  1
:;8: {rn {mn {mn {nh {mm 90-(>-; |
  1
):-+:' {rn {ni {ml |
  1
:336/,:r<*-): {rn o o o rn o riqnmlolnhifnnnggil:ronh lqoinjnjggkjjjfklm:rong o roqojoooooooooooooool n V V |
  1
):-+:' {rn {ng {mk |
  1
:336/,:r<*-): {rn m o nqnnommlomkimjnjij:roni n o iqnmlolnhifnnnggil:ronh lqoinjnjggkjjjfklm:rong o roqojoooooooooooooool n V V |
  1
/061+ {rn lqoinjnjggkjjjfkkk:rong o roqojooooooooooooookk |
  1
/061+ {rn m o roqokffffffffffffffll |
  0
POLYLINE
  5
2FC
330
2F9
100
AcDbEntity
  8
0
100
AcDbPolygonMesh
 66
     1
 10
0.0
 20
0.0
 30
0.0
 70
    48
 71
     2
 72
    16
  0
VERTEX
  5
2FD
330
2FC
100
AcDbEntity
  8
0
100
AcDbVertex
100
AcDbPolygonMeshVertex
 10
2.0
 20
0.0
 30
-0.2
 70
    64
  0
VERTEX
  5
2FE
330
2FC
100
AcDbEntity
  8
0
100
AcDbVertex
100
AcDbPolygonMeshVertex
 10
2.0
 20
0.076537
 30
-0.184776
 70
    64
  0
VERTEX
  5
2FF
330
2FC
100
AcDbEntity
  8
0
100
AcDbVertex
100
AcDbPolygonMeshVertex
 10
2.0
 20
0.141421
 30
-0.141421
 70
    64
  0
VERTEX
  5
300
330
2FC
100
AcDbEntity
  8
0
100
AcDbVertex
100
AcDbPolygonMeshVertex
 10
2.0
 20
0.184776
 30
-0.076537
 70
    64
  0
VERTEX
  5
301
330
2FC
100
AcDbEntity
  8
0
100
AcDbVertex
100
AcDbPolygonMeshVertex
 10
2.0
 20
0.2
 30
0.0
 70
    64
  0
VERTEX
  5
302
330
2FC
100
AcDbEntity
  8
0
100
AcDbVertex
100
AcDbPolygonMeshVertex
 10
2.0
 20
0.184776
 30
0.076537
 70
    64
  0
VERTEX
  5
303
330
2FC
100
AcDbEntity
  8
0
100
AcDbVertex
100
AcDbPolygonMeshVertex
 10
2.0
 20
0.141421
 30
0.141421
 70
    64
  0
VERTEX
  5
304
330
2FC
100
AcDbEntity
  8
0
100
AcDbVertex
100
AcDbPolygonMeshVertex
 10
2.0
 20
0.076537
 30
0.184776
 70
    64
  0
VERTEX
  5
305
330
2FC
100
AcDbEntity
  8
0
100
AcDbVertex
100
AcDbPolygonMeshVertex
 10
2.0
 20
0.0
 30
0.2
 70
    64
  0
VERTEX
  5
306
330
2FC
100
AcDbEntity
  8
0
100
AcDbVertex
100
AcDbPolygonMeshVertex
 10
2.0
 20
-0.076537
 30
0.184776
 70
    64
  0
VERTEX
  5
307
330
2FC
100
AcDbEntity
  8
0
100
AcDbVertex
100
AcDbPolygonMeshVertex
 10
2.0
 20
-0.141421
 30
0.141421
 70
    64
  0
VERTEX
  5
308
330
2FC
100
AcDbEntity
  8
0
100
AcDbVertex
100
AcDbPolygonMeshVertex
 10
2.0
 20
-0.184776
 30
0.076537
 70
    64
  0
VERTEX
  5
309
330
2FC
100
AcDbEntity
  8
0
100
AcDbVertex
100
AcDbPolygonMeshVertex
 10
2.0
 20
-0.2
 30
0.0
 70
    64
  0
VERTEX
  5
30A
330
2FC
100
AcDbEntity
  8
0
100
AcDbVertex
100
AcDbPolygonMeshVertex
 10
2.0
 20
-0.184776
 30
-0.076537
 70
    64
  0
VERTEX
  5
30B
330
2FC
100
AcDbEntity
  8
0
100
AcDbVertex
100
AcDbPolygonMeshVertex
 10
2.0
 20
-0.141421
 30
-0.141421
 70
    64
  0
VERTEX
  5
30C
330
2FC
100
AcDbEntity
  8
0
100
AcDbVertex
100
AcDbPolygonMeshVertex
 10
2.0
 20
-0.076537
 30
-0.184776
 70
    64
  0
VERTEX
  5
30D
330
2FC
100
AcDbEntity
  8
0
100
AcDbVertex
100
AcDbPolygonMeshVertex
 10
3.0
 20
0.0
 30
0.0
 70
    64
  0
VERTEX
  5
30E
330
2FC
100
AcDbEntity
  8
0
100
AcDbVertex
100
AcDbPolygonMeshVertex
 10
3.0
 20
0.0
 30
0.0
 70
    64
  0
VERTEX
  5
30F
330
2FC
100
AcDbEntity
  8
0
100
AcDbVertex
100
AcDbPolygonMeshVertex
 10
3.0
 20
0.0
 30
0.0
 70
    64
  0
VERTEX
  5
310
330
2FC
100
AcDbEntity
  8
0
100
AcDbVertex
100
AcDbPolygonMeshVertex
 10
3.0
 20
0.0
 30
0.0
 70
    64
  0
VERTEX
  5
311
330
2FC
100
AcDbEntity
  8
0
100
AcDbVertex
100
AcDbPolygonMeshVertex
 10
3.0
 20
0.0
 30
0.0
 70
    64
  0
VERTEX
  5
312
330
2FC
100
AcDbEntity
  8
0
100
AcDbVertex
100
AcDbPolygonMeshVertex
 10
3.0
 20
0.0
 30
0.0
 70
    64
  0
VERTEX
  5
313
330
2FC
100
AcDbEntity
  8
0
100
AcDbVertex
100
AcDbPolygonMeshVertex
 10
3.0
 20
0.0
 30
0.0
 70
    64
  0
VERTEX
  5
314
330
2FC
100
AcDbEntity
  8
0
100
AcDbVertex
100
AcDbPolygonMeshVertex
 10
3.0
 20
0.0
 30
0.0
 70
    64
  0
VERTEX
  5
315
330
2FC
100
AcDbEntity
  8
0
100
AcDbVertex
100
AcDbPolygonMeshVertex
 10
3.0
 20
0.0
 30
0.0
 70
    64
  0
VERTEX
  5
316
330
2FC
100
AcDbEntity
  8
0
100
AcDbVertex
100
AcDbPolygonMeshVertex
 10
3.0
 20
0.0
 30
0.0
 70
    64
  0
VERTEX
  5
317
330
2FC
100
AcDbEntity
  8
0
100
AcDbVertex
100
AcDbPolygonMeshVertex
 10
3.0
 20
0.0
 30
0.0
 70
    64
  0
VERTEX
  5
318
330
2FC
100
AcDbEntity
  8
0
100
AcDbVertex
100
AcDbPolygonMeshVertex
 10
3.0
 20
0.0
 30
0.0
 70
    64
  0
VERTEX
  5
319
330
2FC
100
AcDbEntity
  8
0
100
AcDbVertex
100
AcDbPolygonMeshVertex
 10
3.0
 20
0.0
 30
0.0
 70
    64
  0
VERTEX
  5
31A
330
2FC
100
AcDbEntity
  8
0
100
AcDbVertex
100
AcDbPolygonMeshVertex
 10
3.0
 20
0.0
 30
0.0
 70
    64
  0
VERTEX
  5
31B
330
2FC
100
AcDbEntity
  8
0
100
AcDbVertex
100
AcDbPolygonMeshVertex
 10
3.0
 20
0.0
 30
0.0
 70
    64
  0
VERTEX
  5
31C
330
2FC
100
AcDbEntity
  8
0
100
AcDbVertex
100
AcDbPolygonMeshVertex
 10
3.0
 20
0.0
 30
0.0
 70
    64
  0
SEQEND
  5
31D
330
2FC
100
AcDbEntity
  8
0
  0
ENDBLK
  5
31E
330
2F9
100
AcDbEntity
  8
0
100
AcDbBlockEnd
  0
BLOCK
  5
320
330
31F
100
AcDbEntity
  8
0
100
AcDbBlockBegin
  2
YAXIS
 70
     0
 10
0.0
 20
0.0
 30
0.0
  3
YAXIS
  1

  0
3DSOLID
  5
321
330
31F
100
AcDbEntity
  8
0
100
AcDbModelerGeometry
 70
     1
  1
koo mj n o          
  1
h J1410(1 nl ^ \VL kqoqm QK mk R01 ^ /- nh nhemlelj mooi 
  1
rn fqfffffffffffffffj:rooh n:rono 
  1
=0;& {rn {n {rn {rn |
  1
3*2/ {rn {rn {m {o |
  1
,7:33 {rn {rn {rn {l {rn {n |
  1
9><: {rn {k {j {m {rn {i 90-(>-; ,6183: |
  1
9><: {rn {h {g {m {rn {f 90-(>-; ,6183: |
  1
300/ {rn {no {nn {l |
  1
<01:r,*-9><: {rn o n nqnnommlomkimjnjij:roni iqnmlolnhifnnnggil:ronh n iqnmlolnhifnnnggil:ronh nqghkjhjfommhhihnf:rolk lqoinjnjggkjjjfklm:rong roqojoooooooooooooool n V V o n oqojoooooooooooooool 90-(>-; V V V V |
  1
9><: {rn {rn {nm {m {rn {nl 90-(>-; ,6183: |
  1
300/ {rn {rn {nk {k |
  1
/3>1:r,*-9><: {rn o o o riqnmlolnhifnnnggil:ronh rn riqnmlolnhifnnnggil:ronh rlqhkfnjngokjjjlkli:roll riqnmlolnhifnnnggil:ronh n 90-(>-;@) V V V V |
  1
300/ {rn {rn {nj {l |
  1
<0:;8: {rn {nn {nn {nk {ni -:):-,:; {j {rn |
  1
300/ {rn {rn {nh {h |
  1
/3>1:r,*-9><: {rn o nqfffffffffffffffg nqnnommlomkimjnjij:roni iqnmlolnhifnnnggil:ronh n iqnmlolnhifnnnggil:ronh lqhkfnjngokjjjlkli:roll iqnmlolnhifnnnggil:ronh rn 90-(>-;@) V V V V |
  1
<0:;8: {rn {nk {nk {nn {ni 90-(>-; {g {rn |
  1
<0:;8: {rn {nj {nj {nh {ng -:):-,:; {no {rn |
  1
:;8: {rn {nf {nf {nk {mo 90-(>-; |
  1
<0:;8: {rn {nh {nh {nj {ng 90-(>-; {nm {rn |
  1
:;8: {rn {mn {mn {nh {mm 90-(>-; |
  1
):-+:' {rn {ni {ml |
  1
:336/,:r<*-): {rn o o o riqnmlolnhifnnnggil:ronh rn riqnmlolnhifnnnggil:ronh nqghkjhjfommhhihnf:rolk lqoinjnjggkjjjfklm:rong roqojoooooooooooooool n V V |
  1
):-+:' {rn {ng {mk |
  1
:336/,:r<*-): {rn o nqfffffffffffffffg nqnnommlomkimjnjij:roni iqnmlolnhifnnnggil:ronh n iqnmlolnhifnnnggil:ronh nqghkjhjfommhhihnf:rolk lqoinjnjggkjjjfklm:rong roqojoooooooooooooool n V V |
  1
/061+ {rn o o roqojooooooooooooookk |
  1
/061+ {rn o nqfffffffffffffffg roqokffffffffffffffll |
  0
POLYLINE
  5
322
330
31F
100
AcDbEntity
  8
0
100
AcDbPolygonMesh
 66
     1
 10
0.0
 20
0.0
 30
0.0
 70
    48
 71
     2
 72
    16
  0
VERTEX
  5
323
330
322
100
AcDbEntity
  8
0
100
AcDbVertex
100
AcDbPolygonMeshVertex
 10
0.0
 20
2.0
 30
-0.2
 70
    64
  0
VERTEX
  5
324
330
322
100
AcDbEntity
  8
0
100
AcDbVertex
100
AcDbPolygonMeshVertex
 10
-0.076537
 20
2.0
 30
-0.184776
 70
    64
  0
VERTEX
  5
325
330
322
100
AcDbEntity
  8
0
100
AcDbVertex
100
AcDbPolygonMeshVertex
 10
-0.141421
 20
2.0
 30
-0.141421
 70
    64
  0
VERTEX
  5
326
330
322
100
AcDbEntity
  8
0
100
AcDbVertex
100
AcDbPolygonMeshVertex
 10
-0.184776
 20
2.0
 30
-0.076537
 70
    64
  0
VERTEX
  5
327
330
322
100
AcDbEntity
  8
0
100
AcDbVertex
100
AcDbPolygonMeshVertex
 10
-0.2
 20
2.0
 30
0.0
 70
    64
  0
VERTEX
  5
328
330
322
100
AcDbEntity
  8
0
100
AcDbVertex
100
AcDbPolygonMeshVertex
 10
-0.184776
 20
2.0
 30
0.076537
 70
    64
  0
VERTEX
  5
329
330
322
100
AcDbEntity
  8
0
100
AcDbVertex
100
AcDbPolygonMeshVertex
 10
-0.141421
 20
2.0
 30
0.141421
 70
    64
  0
VERTEX
  5
32A
330
322
100
AcDbEntity
  8
0
100
AcDbVertex
100
AcDbPolygonMeshVertex
 10
-0.076537
 20
2.0
 30
0.184776
 70
    64
  0
VERTEX
  5
32B
330
322
100
AcDbEntity
  8
0
100
AcDbVertex
100
AcDbPolygonMeshVertex
 10
0.0
 20
2.0
 30
0.2
 70
    64
  0
VERTEX
  5
32C
330
322
100
AcDbEntity
  8
0
100
AcDbVertex
100
AcDbPolygonMeshVertex
 10
0.076537
 20
2.0
 30
0.184776
 70
    64
  0
VERTEX
  5
32D
330
322
100
AcDbEntity
  8
0
100
AcDbVertex
100
AcDbPolygonMeshVertex
 10
0.141421
 20
2.0
 30
0.141421
 70
    64
  0
VERTEX
  5
32E
330
322
100
AcDbEntity
  8
0
100
AcDbVertex
100
AcDbPolygonMeshVertex
 10
0.184776
 20
2.0
 30
0.076537
 70
    64
  0
VERTEX
  5
32F
330
322
100
AcDbEntity
  8
0
100
AcDbVertex
100
AcDbPolygonMeshVertex
 10
0.2
 20
2.0
 30
0.0
 70
    64
  0
VERTEX
  5
330
330
322
100
AcDbEntity
  8
0
100
AcDbVertex
100
AcDbPolygonMeshVertex
 10
0.184776
 20
2.0
 30
-0.076537
 70
    64
  0
VERTEX
  5
331
330
322
100
AcDbEntity
  8
0
100
AcDbVertex
100
AcDbPolygonMeshVertex
 10
0.141421
 20
2.0
 30
-0.141421
 70
    64
  0
VERTEX
  5
332
330
322
100
AcDbEntity
  8
0
100
AcDbVertex
100
AcDbPolygonMeshVertex
 10
0.076537
 20
2.0
 30
-0.184776
 70
    64
  0
VERTEX
  5
333
330
322
100
AcDbEntity
  8
0
100
AcDbVertex
100
AcDbPolygonMeshVertex
 10
0.0
 20
3.0
 30
0.0
 70
    64
  0
VERTEX
  5
334
330
322
100
AcDbEntity
  8
0
100
AcDbVertex
100
AcDbPolygonMeshVertex
 10
0.0
 20
3.0
 30
0.0
 70
    64
  0
VERTEX
  5
335
330
322
100
AcDbEntity
  8
0
100
AcDbVertex
100
AcDbPolygonMeshVertex
 10
0.0
 20
3.0
 30
0.0
 70
    64
  0
VERTEX
  5
336
330
322
100
AcDbEntity
  8
0
100
AcDbVertex
100
AcDbPolygonMeshVertex
 10
0.0
 20
3.0
 30
0.0
 70
    64
  0
VERTEX
  5
337
330
322
100
AcDbEntity
  8
0
100
AcDbVertex
100
AcDbPolygonMeshVertex
 10
0.0
 20
3.0
 30
0.0
 70
    64
  0
VERTEX
  5
338
330
322
100
AcDbEntity
  8
0
100
AcDbVertex
100
AcDbPolygonMeshVertex
 10
0.0
 20
3.0
 30
0.0
 70
    64
  0
VERTEX
  5
339
330
322
100
AcDbEntity
  8
0
100
AcDbVertex
100
AcDbPolygonMeshVertex
 10
0.0
 20
3.0
 30
0.0
 70
    64
  0
VERTEX
  5
33A
330
322
100
AcDbEntity
  8
0
100
AcDbVertex
100
AcDbPolygonMeshVertex
 10
0.0
 20
3.0
 30
0.0
 70
    64
  0
VERTEX
  5
33B
330
322
100
AcDbEntity
  8
0
100
AcDbVertex
100
AcDbPolygonMeshVertex
 10
0.0
 20
3.0
 30
0.0
 70
    64
  0
VERTEX
  5
33C
330
322
100
AcDbEntity
  8
0
100
AcDbVertex
100
AcDbPolygonMeshVertex
 10
0.0
 20
3.0
 30
0.0
 70
    64
  0
VERTEX
  5
33D
330
322
100
AcDbEntity
  8
0
100
AcDbVertex
100
AcDbPolygonMeshVertex
 10
0.0
 20
3.0
 30
0.0
 70
    64
  0
VERTEX
  5
33E
330
322
100
AcDbEntity
  8
0
100
AcDbVertex
100
AcDbPolygonMeshVertex
 10
0.0
 20
3.0
 30
0.0
 70
    64
  0
VERTEX
  5
33F
330
322
100
AcDbEntity
  8
0
100
AcDbVertex
100
AcDbPolygonMeshVertex
 10
0.0
 20
3.0
 30
0.0
 70
    64
  0
VERTEX
  5
340
330
322
100
AcDbEntity
  8
0
100
AcDbVertex
100
AcDbPolygonMeshVertex
 10
0.0
 20
3.0
 30
0.0
 70
    64
  0
VERTEX
  5
341
330
322
100
AcDbEntity
  8
0
100
AcDbVertex
100
AcDbPolygonMeshVertex
 10
0.0
 20
3.0
 30
0.0
 70
    64
  0
VERTEX
  5
342
330
322
100
AcDbEntity
  8
0
100
AcDbVertex
100
AcDbPolygonMeshVertex
 10
0.0
 20
3.0
 30
0.0
 70
    64
  0
SEQEND
  5
343
330
322
100
AcDbEntity
  8
0
  0
ENDBLK
  5
344
330
31F
100
AcDbEntity
  8
0
100
AcDbBlockEnd
  0
BLOCK
  5
346
330
345
100
AcDbEntity
  8
0
100
AcDbBlockBegin
  2
ZAXIS
 70
     0
 10
0.0
 20
0.0
 30
0.0
  3
ZAXIS
  1

  0
3DSOLID
  5
347
330
345
100
AcDbEntity
  8
0
100
AcDbModelerGeometry
 70
     1
  1
koo mj n o          
  1
h J1410(1 nl ^ \VL kqoqm QK mk R01 ^ /- nh nhemlelj mooi 
  1
rn fqfffffffffffffffj:rooh n:rono 
  1
=0;& {rn {n {rn {rn |
  1
3*2/ {rn {rn {m {o |
  1
,7:33 {rn {rn {rn {l {rn {n |
  1
9><: {rn {k {j {m {rn {i 90-(>-; ,6183: |
  1
9><: {rn {h {g {m {rn {f 90-(>-; ,6183: |
  1
300/ {rn {no {nn {l |
  1
<01:r,*-9><: {rn o o n o o n oqojoooooooooooooool o o n V V o n oqojoooooooooooooool 90-(>-; V V V V |
  1
9><: {rn {rn {nm {m {rn {nl 90-(>-; ,6183: |
  1
300/ {rn {rn {nk {k |
  1
/3>1:r,*-9><: {rn o o o o o rn rn o o 90-(>-;@) V V V V |
  1
300/ {rn {rn {nj {l |
  1
<0:;8: {rn {nn {nn {nk {ni -:):-,:; {j {rn |
  1
300/ {rn {rn {nh {h |
  1
/3>1:r,*-9><: {rn o o m o o n n o o 90-(>-;@) V V V V |
  1
<0:;8: {rn {nk {nk {nn {ni 90-(>-; {g {rn |
  1
<0:;8: {rn {nj {nj {nh {ng -:):-,:; {no {rn |
  1
:;8: {rn {nf {nf {nk {mo 90-(>-; |
  1
<0:;8: {rn {nh {nh {nj {ng 90-(>-; {nm {rn |
  1
:;8: {rn {mn {mn {nh {mm 90-(>-; |
  1
):-+:' {rn {ni {ml |
  1
:336/,:r<*-): {rn o o o o o rn oqojoooooooooooooool o o n V V |
  1
):-+:' {rn {ng {mk |
  1
:336/,:r<*-): {rn o o m o o n oqojoooooooooooooool o o n V V |
  1
/061+ {rn oqojoooooooooooooool o o |
  1
/061+ {rn oqojoooooooooooooool o m |
  0
POLYLINE
  5
348
330
345
100
AcDbEntity
  8
0
100
AcDbPolygonMesh
 66
     1
 10
0.0
 20
0.0
 30
0.0
 70
    48
 71
     2
 72
    16
  0
VERTEX
  5
349
330
348
100
AcDbEntity
  8
0
100
AcDbVertex
100
AcDbPolygonMeshVertex
 10
0.2
 20
0.0
 30
2.0
 70
    64
  0
VERTEX
  5
34A
330
348
100
AcDbEntity
  8
0
100
AcDbVertex
100
AcDbPolygonMeshVertex
 10
0.184776
 20
0.076537
 30
2.0
 70
    64
  0
VERTEX
  5
34B
330
348
100
AcDbEntity
  8
0
100
AcDbVertex
100
AcDbPolygonMeshVertex
 10
0.141421
 20
0.141421
 30
2.0
 70
    64
  0
VERTEX
  5
34C
330
348
100
AcDbEntity
  8
0
100
AcDbVertex
100
AcDbPolygonMeshVertex
 10
0.076537
 20
0.184776
 30
2.0
 70
    64
  0
VERTEX
  5
34D
330
348
100
AcDbEntity
  8
0
100
AcDbVertex
100
AcDbPolygonMeshVertex
 10
0.0
 20
0.2
 30
2.0
 70
    64
  0
VERTEX
  5
34E
330
348
100
AcDbEntity
  8
0
100
AcDbVertex
100
AcDbPolygonMeshVertex
 10
-0.076537
 20
0.184776
 30
2.0
 70
    64
  0
VERTEX
  5
34F
330
348
100
AcDbEntity
  8
0
100
AcDbVertex
100
AcDbPolygonMeshVertex
 10
-0.141421
 20
0.141421
 30
2.0
 70
    64
  0
VERTEX
  5
350
330
348
100
AcDbEntity
  8
0
100
AcDbVertex
100
AcDbPolygonMeshVertex
 10
-0.184776
 20
0.076537
 30
2.0
 70
    64
  0
VERTEX
  5
351
330
348
100
AcDbEntity
  8
0
100
AcDbVertex
100
AcDbPolygonMeshVertex
 10
-0.2
 20
0.0
 30
2.0
 70
    64
  0
VERTEX
  5
352
330
348
100
AcDbEntity
  8
0
100
AcDbVertex
100
AcDbPolygonMeshVertex
 10
-0.184776
 20
-0.076537
 30
2.0
 70
    64
  0
VERTEX
  5
353
330
348
100
AcDbEntity
  8
0
100
AcDbVertex
100
AcDbPolygonMeshVertex
 10
-0.141421
 20
-0.141421
 30
2.0
 70
    64
  0
VERTEX
  5
354
330
348
100
AcDbEntity
  8
0
100
AcDbVertex
100
AcDbPolygonMeshVertex
 10
-0.076537
 20
-0.184776
 30
2.0
 70
    64
  0
VERTEX
  5
355
330
348
100
AcDbEntity
  8
0
100
AcDbVertex
100
AcDbPolygonMeshVertex
 10
0.0
 20
-0.2
 30
2.0
 70
    64
  0
VERTEX
  5
356
330
348
100
AcDbEntity
  8
0
100
AcDbVertex
100
AcDbPolygonMeshVertex
 10
0.076537
 20
-0.184776
 30
2.0
 70
    64
  0
VERTEX
  5
357
330
348
100
AcDbEntity
  8
0
100
AcDbVertex
100
AcDbPolygonMeshVertex
 10
0.141421
 20
-0.141421
 30
2.0
 70
    64
  0
VERTEX
  5
358
330
348
100
AcDbEntity
  8
0
100
AcDbVertex
100
AcDbPolygonMeshVertex
 10
0.184776
 20
-0.076537
 30
2.0
 70
    64
  0
VERTEX
  5
359
330
348
100
AcDbEntity
  8
0
100
AcDbVertex
100
AcDbPolygonMeshVertex
 10
0.0
 20
0.0
 30
3.0
 70
    64
  0
VERTEX
  5
35A
330
348
100
AcDbEntity
  8
0
100
AcDbVertex
100
AcDbPolygonMeshVertex
 10
0.0
 20
0.0
 30
3.0
 70
    64
  0
VERTEX
  5
35B
330
348
100
AcDbEntity
  8
0
100
AcDbVertex
100
AcDbPolygonMeshVertex
 10
0.0
 20
0.0
 30
3.0
 70
    64
  0
VERTEX
  5
35C
330
348
100
AcDbEntity
  8
0
100
AcDbVertex
100
AcDbPolygonMeshVertex
 10
0.0
 20
0.0
 30
3.0
 70
    64
  0
VERTEX
  5
35D
330
348
100
AcDbEntity
  8
0
100
AcDbVertex
100
AcDbPolygonMeshVertex
 10
0.0
 20
0.0
 30
3.0
 70
    64
  0
VERTEX
  5
35E
330
348
100
AcDbEntity
  8
0
100
AcDbVertex
100
AcDbPolygonMeshVertex
 10
0.0
 20
0.0
 30
3.0
 70
    64
  0
VERTEX
  5
35F
330
348
100
AcDbEntity
  8
0
100
AcDbVertex
100
AcDbPolygonMeshVertex
 10
0.0
 20
0.0
 30
3.0
 70
    64
  0
VERTEX
  5
360
330
348
100
AcDbEntity
  8
0
100
AcDbVertex
100
AcDbPolygonMeshVertex
 10
0.0
 20
0.0
 30
3.0
 70
    64
  0
VERTEX
  5
361
330
348
100
AcDbEntity
  8
0
100
AcDbVertex
100
AcDbPolygonMeshVertex
 10
0.0
 20
0.0
 30
3.0
 70
    64
  0
VERTEX
  5
362
330
348
100
AcDbEntity
  8
0
100
AcDbVertex
100
AcDbPolygonMeshVertex
 10
0.0
 20
0.0
 30
3.0
 70
    64
  0
VERTEX
  5
363
330
348
100
AcDbEntity
  8
0
100
AcDbVertex
100
AcDbPolygonMeshVertex
 10
0.0
 20
0.0
 30
3.0
 70
    64
  0
VERTEX
  5
364
330
348
100
AcDbEntity
  8
0
100
AcDbVertex
100
AcDbPolygonMeshVertex
 10
0.0
 20
0.0
 30
3.0
 70
    64
  0
VERTEX
  5
365
330
348
100
AcDbEntity
  8
0
100
AcDbVertex
100
AcDbPolygonMeshVertex
 10
0.0
 20
0.0
 30
3.0
 70
    64
  0
VERTEX
  5
366
330
348
100
AcDbEntity
  8
0
100
AcDbVertex
100
AcDbPolygonMeshVertex
 10
0.0
 20
0.0
 30
3.0
 70
    64
  0
VERTEX
  5
367
330
348
100
AcDbEntity
  8
0
100
AcDbVertex
100
AcDbPolygonMeshVertex
 10
0.0
 20
0.0
 30
3.0
 70
    64
  0
VERTEX
  5
368
330
348
100
AcDbEntity
  8
0
100
AcDbVertex
100
AcDbPolygonMeshVertex
 10
0.0
 20
0.0
 30
3.0
 70
    64
  0
SEQEND
  5
369
330
348
100
AcDbEntity
  8
0
  0
ENDBLK
  5
36A
330
345
100
AcDbEntity
  8
0
100
AcDbBlockEnd
  0
ENDSEC
  0
SECTION
  2
ENTITIES
  0
LINE
  5
370
330
19
100
AcDbEntity
  8
GRID
  6
CENTER
 62
     1
 48
0.5
100
AcDbLine
 10
-800.0
 20
-20.0
 30
0.0
 11
-800.0
 21
1593.0
 31
0.0
  0
LINE
  5
374
330
19
100
AcDbEntity
  8
GRID
  6
CENTER
 62
     1
 48
0.5
100
AcDbLine
 10
-400.0
 20
-20.0
 30
0.0
 11
-400.0
 21
1593.0
 31
0.0
  0
LINE
  5
378
330
19
100
AcDbEntity
  8
GRID
  6
CENTER
 62
     1
 48
0.5
100
AcDbLine
 10
0.0
 20
-20.0
 30
0.0
 11
0.0
 21
1593.0
 31
0.0
  0
LINE
  5
37C
330
19
100
AcDbEntity
  8
GRID
  6
CENTER
 62
     1
 48
0.5
100
AcDbLine
 10
192.0
 20
-20.0
 30
0.0
 11
192.0
 21
1593.0
 31
0.0
  0
LINE
  5
380
330
19
100
AcDbEntity
  8
GRID
  6
CENTER
 62
     1
 48
0.5
100
AcDbLine
 10
297.0
 20
-20.0
 30
0.0
 11
297.0
 21
1593.0
 31
0.0
  0
LINE
  5
384
330
19
100
AcDbEntity
  8
GRID
  6
CENTER
 62
     1
 48
0.5
100
AcDbLine
 10
408.0
 20
-20.0
 30
0.0
 11
408.0
 21
1593.0
 31
0.0
  0
LINE
  5
388
330
19
100
AcDbEntity
  8
GRID
  6
CENTER
 62
     1
 48
0.5
100
AcDbLine
 10
596.0004
 20
-20.0
 30
0.0
 11
596.0004
 21
1593.0
 31
0.0
  0
LINE
  5
38C
330
19
100
AcDbEntity
  8
GRID
  6
CENTER
 62
     1
 48
0.5
100
AcDbLine
 10
664.0008
 20
-20.0
 30
0.0
 11
664.0008
 21
1593.0
 31
0.0
  0
LINE
  5
390
330
19
100
AcDbEntity
  8
GRID
  6
CENTER
 62
     1
 48
0.5
100
AcDbLine
 10
724.0
 20
-20.0
 30
0.0
 11
724.0
 21
1593.0
 31
0.0
  0
LINE
  5
394
330
19
100
AcDbEntity
  8
GRID
  6
CENTER
 62
     1
 48
0.5
100
AcDbLine
 10
909.0011999999999
 20
-20.0
 30
0.0
 11
909.0011999999999
 21
1593.0
 31
0.0
  0
LINE
  5
398
330
19
100
AcDbEntity
  8
GRID
  6
CENTER
 62
     1
 48
0.5
100
AcDbLine
 10
1300.0
 20
-20.0
 30
0.0
 11
1300.0
 21
1593.0
 31
0.0
  0
LINE
  5
39C
330
19
100
AcDbEntity
  8
GRID
  6
CENTER
 62
     1
 48
0.5
100
AcDbLine
 10
-800.0
 20
-20.0
 30
0.0
 11
1300.0
 21
-20.0
 31
0.0
  0
LINE
  5
3A0
330
19
100
AcDbEntity
  8
GRID
  6
CENTER
 62
     1
 48
0.5
100
AcDbLine
 10
-800.0
 20
276.0
 30
0.0
 11
1300.0
 21
276.0
 31
0.0
  0
LINE
  5
3A4
330
19
100
AcDbEntity
  8
GRID
  6
CENTER
 62
     1
 48
0.5
100
AcDbLine
 10
-800.0
 20
390.0
 30
0.0
 11
1300.0
 21
390.0
 31
0.0
  0
LINE
  5
3A8
330
19
100
AcDbEntity
  8
GRID
  6
CENTER
 62
     1
 48
0.5
100
AcDbLine
 10
-800.0
 20
542.0004
 30
0.0
 11
1300.0
 21
542.0004
 31
0.0
  0
LINE
  5
3AC
330
19
100
AcDbEntity
  8
GRID
  6
CENTER
 62
     1
 48
0.5
100
AcDbLine
 10
-800.0
 20
822.0
 30
0.0
 11
1300.0
 21
822.0
 31
0.0
  0
LINE
  5
3B0
330
19
100
AcDbEntity
  8
GRID
  6
CENTER
 62
     1
 48
0.5
100
AcDbLine
 10
-800.0
 20
1088.0
 30
0.0
 11
1300.0
 21
1088.0
 31
0.0
  0
LINE
  5
3B4
330
19
100
AcDbEntity
  8
GRID
  6
CENTER
 62
     1
 48
0.5
100
AcDbLine
 10
-800.0
 20
1254.0
 30
0.0
 11
1300.0
 21
1254.0
 31
0.0
  0
LINE
  5
3B8
330
19
100
AcDbEntity
  8
GRID
  6
CENTER
 62
     1
 48
0.5
100
AcDbLine
 10
-800.0
 20
1368.0
 30
0.0
 11
1300.0
 21
1368.0
 31
0.0
  0
LINE
  5
3BC
330
19
100
AcDbEntity
  8
GRID
  6
CENTER
 62
     1
 48
0.5
100
AcDbLine
 10
-800.0
 20
1593.0
 30
0.0
 11
1300.0
 21
1593.0
 31
0.0
  0
LINE
  5
3C0
330
19
100
AcDbEntity
  8
GRID
  6
CENTER
 62
     1
 48
0.5
100
AcDbLine
 10
664.0
 20
276.0
 30
0.0
 11
664.0
 21
276.0
 31
0.0
  0
ENDSEC
  0
SECTION
  2
OBJECTS
  0
DICTIONARY
  5
C
330
0
100
AcDbDictionary
281
     1
  3
ACAD_GROUP
350
D
  3
ACAD_LAYOUT
350
3D0
  3
ACAD_MLINESTYLE
350
E
  3
ACAD_PLOTSETTINGS
350
3D1
  3
ACAD_PLOTSTYLENAME
350
3CE
  3
AcDbVariableDictionary
350
3D5
  0
DICTIONARY
  5
D
102
{ACAD_REACTORS
330
C
102
}
330
C
100
AcDbDictionary
281
     1
  0
DICTIONARY
  5
3D0
102
{ACAD_REACTORS
330
C
102
}
330
C
100
AcDbDictionary
281
     1
  3
Layout1
350
3D3
  3
Model
350
3D2
  0
DICTIONARY
  5
E
102
{ACAD_REACTORS
330
C
102
}
330
C
100
AcDbDictionary
281
     1
  3
STANDARD
350
1C
  0
DICTIONARY
  5
3D1
102
{ACAD_REACTORS
330
C
102
}
330
C
100
AcDbDictionary
281
     1
  0
ACDBDICTIONARYWDFLT
  5
3CE
102
{ACAD_REACTORS
330
C
102
}
330
C
100
AcDbDictionary
281
     1
  3
Normal
350
3CF
100
AcDbDictionaryWithDefault
340
3CF
  0
DICTIONARY
  5
3D5
102
{ACAD_REACTORS
330
C
102
}
330
C
100
AcDbDictionary
281
     1
  3
DIMASSOC
350
3D6
  0
LAYOUT
  5
3D3
102
{ACAD_REACTORS
330
3D0
102
}
330
3D0
100
AcDbPlotSettings
  1

  2
\\Csifile\HP-5000-PS
  4

  6

 40
0.0
 41
0.0
 42
0.0
 43
0.0
 44
0.0
 45
0.0
 46
0.0
 47
0.0
 48
0.0
 49
0.0
140
0.0
141
0.0
142
1.0
143
1.0
 70
   688
 72
     0
 73
     0
 74
     5
  7

 75
    16
147
1.0
148
0.0
149
0.0
100
AcDbLayout
  1
Layout1
 70
     1
 71
     1
 10
0.0
 20
0.0
 11
12.0
 21
9.0
 12
0.0
 22
0.0
 32
0.0
 14
1.000000000000000E+20
 24
1.000000000000000E+20
 34
1.000000000000000E+20
 15
-1.000000000000000E+20
 25
-1.000000000000000E+20
 35
-1.000000000000000E+20
146
0.0
 13
0.0
 23
0.0
 33
0.0
 16
1.0
 26
0.0
 36
0.0
 17
0.0
 27
1.0
 37
0.0
 76
     0
330
16
  0
LAYOUT
  5
3D2
102
{ACAD_REACTORS
330
3D0
102
}
330
3D0
100
AcDbPlotSettings
  1

  2
\\Csifile\HP-5000-PS
  4

  6

 40
0.0
 41
0.0
 42
0.0
 43
0.0
 44
0.0
 45
0.0
 46
0.0
 47
0.0
 48
0.0
 49
0.0
140
0.0
141
0.0
142
1.0
143
1.0
 70
  1712
 72
     0
 73
     0
 74
     0
  7

 75
     0
147
1.0
148
0.0
149
0.0
100
AcDbLayout
  1
Model
 70
     1
 71
     0
 10
0.0
 20
0.0
 11
12.0
 21
9.0
 12
0.0
 22
0.0
 32
0.0
 14
0.0
 24
0.0
 34
0.0
 15
0.0
 25
0.0
 35
0.0
146
0.0
 13
0.0
 23
0.0
 33
0.0
 16
1.0
 26
0.0
 36
0.0
 17
0.0
 27
1.0
 37
0.0
 76
     0
330
19
  0
MLINESTYLE
  5
1C
102
{ACAD_REACTORS
330
E
102
}
330
E
100
AcDbMlineStyle
  2
STANDARD
 70
     0
  3

 62
     0
 51
90.0
 52
90.0
 71
     2
 49
0.5
 62
   256
  6
BYLAYER
 49
-0.5
 62
   256
  6
BYLAYER
  0
ACDBPLACEHOLDER
  5
3CF
102
{ACAD_REACTORS
330
3CE
102
}
330
3CE
  0
DICTIONARYVAR
  5
3D6
102
{ACAD_REACTORS
330
3D5
102
}
330
3D5
100
DictionaryVariables
280
     0
  1
1
  0
ENDSEC
  0
EOF
